Nofx - Seperation Of Church And Skate Chords & Tabs

 

Seperation Of Church And Skate Chords & Tabs

Nofx Chords & Tabs

Version: 1 Type: Bass Tab 0 ratings
1 star 2 stars 3 stars 4 stars 5 stars
comments

Seperation Of Church And Skate Bass Tab

   
----------------------------------PLEASE NOTE---------------------------------
This file is the author's own work and represents their interpretation of the 
song. You may only use this file for private study, scholarship, or research. 
------------------------------------------------------------------------------
Band: NoFX
Song: The Separation Of Church And Skate
Album: The War On Errorism
Tuning: EADG (standard)

Intro: start at 0:27
G|------------------------------------|
D|------------------------------------|
A|---000000000000000-----/121212121212|
E|------------------------------------|
	           (Those are 12's)
Intro Continued
G|-------------------------------|
D|-------------------------------|
A|---000000000000-----10-11-12-12|
E|-------------------------------|

Verse:
G|-------------------------------------------------|
D|-------------------------------------------------|
A|---0000000-----8888---3333---------007006-0000000|
E|---------------------------3333333---------------|

G|-------------------------------|
D|-------------------------------|
A|---8888---3333-----------------|
E|---------------3333333-----55-5|

Chorus:
G|--------------------------------------------------------------|
D|--------------------------------------------------------------|
A|000000000000-----888888888888-----333333333333----------------|
E|------------------------------------------------333333--444444|

Chrous Continued:
G|---------------------------------------------------------------------------------|
D|---------------------------------------------------------------------------------|
A|000000000000--888888888888--333333333333--0000000000--7-888888888888-888888888888|
E|---------------------------------------------------------------------------------|

Bridge:
G|------------(pause)-------|
D|------------(pause)-------|
A|---0-------0(pause)-007006| 
E|------------(pause)-------|

2nd Verse:
G|-------------------------------------------------|
D|-------------------------------------------------|
A|---0000000-----8888---3333---------007006-0000000|
E|---------------------------3333333---------------|

G|-------------------------------|
D|-------------------------------|
A|---8888---3333-----------------|
E|---------------3333333-----55-5|
[ Tab from: http://www.guitartabs.cc/tabs/n/nofx/seperation_of_church_and_skate_btab.html ]
2nd Chours:
G|-------------------------------------------------------------------------------|
D|-------------------------------------------------------------------------------|
A|---000000000000-----888888888888-----333333333333----101010101010--111111111111|
E|-------------------------------------------------------------------------------|
                                                      (Those are 10's and 11's)
2nd Chorus continued:
G|---------------------------------------------------------------------------------|
D|---------------------------------------------------------------------------------|
A|000000000000--888888888888--333333333333--0000000000--7888888888888--888888888888|
E|---------------------------------------------------------------------------------|

Solo:
G|--------------------------------------------------------------------------------|
D|--------------------------------------------------------------------------------|
A|0000000000000000-----------------555-000000000----888-333333333----555-000000000|
E|----------------1111111111111111------------------------------------------------|

Solo Continued:

G|---------------------------------------------------------|
D|---------------------------------------------------------|
A|--888-333333333--000-555555555--777-8888888---10-10-10-12|
E|---------------------------------------------------------|

Bridge #2
G|------------------------9---8---7575|
D|----------------------77--77--7-----|
A|---00000000000000000----------------|
E|------------------------------------|

3rd Verse
G|-----------------------------------------------------------------------------|
D|-----------------------------------------------------------------------------|
A|0000000---8888---3333--------007006-0000000---8888---3333--------------------|
E|-----------------------3333---------------------------------3----2----3-----4|

3rd chorus:
G|--------------------------------------------------------------------|
D|--------------------------------------------------------------------|
A|000000000000--888888888888--333333333333--101010101010--111111111111|
E|--------------------------------------------------------------------| Play 3 times
		                  (Those are 10's and 11's)
G|---------------------------------------------|
D|---------------------------------------------|
A|-0000000000----7888888888888-----888888888888|
E|---------------------------------------------|

Outro:
G|--------------------------------------|
D|--------------------------------------|
A|00000000--0-00-30----030--00--00------|
E|-----------------3-2----3----------12|

G|----------------|
D|----------------|
A|-0-00-30----030-|
E|--------3-2----3|Play 3 Times

G|---|
D|---|
A|-00|
E|---|

problems....oh of course, i might fix this up later if i find my own problems
but go ahead drop me a line: mullenman223@yahoo.com
Comments