Nofx - Separation Of Church And Skate Chords & Tabs

 

Separation Of Church And Skate Chords & Tabs

Nofx Chords & Tabs

Version: 3 Type: Tab 0 ratings
1 star 2 stars 3 stars 4 stars 5 stars
comments

Separation Of Church And Skate Tab

   
NOFX - Sepertate The Church And Skate
CKY69SEEtHER a.k.a antiflagdude666
 
Tuning: Standard (E A D G B E)



        this x3
                      then
E|---------------------------------------------------------------------------||
B|---------------------------------------------------------------------------||
G|---------------------------------------------------------------------------||
D|---------------------------------------------------------------------------||
A|------5-5-3--35----------------7----6--------------------------------------||
E|---5-------------------------5----5----------------------------------------||

while doin this strum the string yoru playing on
also there is a riff in the song which uses a varied version of this


E|-----------------------------------------||
B|-----------------------------------------||
G|-------5-------7-------------------------||
D|---7---5---5---7-------------------------||
A|---7---3---5---5-------------------------||
E|---5-------3-----------------------------||
at 0:37 2d guitar play this the 1st and 2nd guit play the intro


verse
E|-----------------------------------------------||
B|-----------------------------------------------||
G|------------5-5--------------------------------||
D|---7-7-7-7--5-5---5-5--7-7-7-7-----------------||
A|---7-7-7-7--3-3---5-5--7-7-7-7---7---6---------||
E|---5-5-5-5--------3-3--5-5-5-5-5---5-----------||
  palm mute the verse

pre chorus
E|-----------------------------------------------------------------||
B|-----------------------------------------------------------------||
G|---------------------------------------5-5-5-5-5-5-5-5-----------||
D|--7-7-7-7-7-7-7-7---3-3-3-3-3-3-3-3----5-5-5-5-5-5-5-5--5-5--7-7-||
A|--7-7-7-7-7-7-7-7---3-3-3-3-3-3-3-3----3-3-3-3-3-3-3-3--5-5--7-7-||
E|--5-5-5-5-5-5-5-5---1-1-1-1-1-1-1-1---------------------3-3--5-5-||

[ Tab from: http://www.guitartabs.cc/tabs/n/nofx/separation_of_church_and_skate_tab_ver_3.html ]
E|----------------------------------------------------||
B|----------------------------------------------------||
G|--5-5-5-5-5-5-5-5-5-5-5-5-5-5-----------------------||
D|--5-5-5-5-5-5-5-5-5-5-5-5-5-5--7--------------------||
A|--3-3-3-3-3-3-3-3-3-3-3-3-3-3--7--------------------||
E|-------------------------------5--------------------||

solo
E|-------------------------------------||
B|-------------------------------------||
G|---9-9-7------9-7----9---------------||
D|---------10-7-----10-----------------||
A|-------------------------------------||
E|-------------------------------------||


E|--------------------------------------------------------||
B|--------------------------------------------------------||
G|--------------------------------------------------------||
D|-----------------------3-3------------------------------||
A|-------3---------------3-3------------------------------||
E|---5-5---5-3-0-3-0-3-4-5-5------------------------------||
repeat this


here are the wurdz
Lost in a sea of combat boots,flush the bouncers with wasted youth
When did punk rock become so safe,When did the scene become a joke
The kids who used to live for speed and beer now want their fries and coke
cursing and flipping birds are not allowed,in fact lets keep noise levels down

Must separate the church and skate

Why dont we put pads on the kids,helmets headgear and mouthpieces
then we could pad the floors and walls put cameras inside bathroom stalls
Wed make the only nice bands play,make every show a matinee,teach kids to be all
they can be then we could sing my country 'tis of thee sweet land of liberty

when did punk rock become so safe i know it wasnt duane or fletcher who put up
the barricades like a stake in a heart so now we got driven apart

I want conflict i want dissent i want the scene to represent Our hatred of
authority our fight against complanencystop singing songs about girls and love
you killed the you freed the dove confrontation and politics replaced with
harmonies and shticks Whwn did punk rock become so tame these fucking bands all
sound the same we want our fights we want our we want our booze we want our drugs
where is the violent apathy THESE FUCKING RECORDS ARE RATED G!!!!!when did punk
rock become so safe

Well that's about it
================================================================================
Comments