Nofx - Screaming For Change Chords & Tabs

 

Screaming For Change Chords & Tabs

Nofx Chords & Tabs

Version: 2 Type: Bass Tab 0 ratings
1 star 2 stars 3 stars 4 stars 5 stars
comments

Screaming For Change Bass Tab

---------------------------------------------------
SCREAMING FOR CHANGE / NOFX
---------------------------------------------------

By:Carlos Pino

G-|---------------------
D-|-----------------
A-|-7---3--2-----------2-
E-|------------3-2-2-0--

riff1
G-|-----------------------------------
D-|--------------------------------------
A-|------------7-5-3-x-2-x-3-x-x---------
E-|-x-x-x-0-------------------------3-2-2-0-
[ Tab from: http://www.guitartabs.cc/tabs/n/nofx/screaming_for_change_btab_ver_2.html ]
verse:
G-|-----------------------------------------------------------------
D-|-------------------------------------------------------------------------------
A-|------------------------1-1-1-1---------------------------------1-1-1-1----------
E-|-0-0-0-0-3-3-3-3-------------1-1-1-1-0-0-0-0-3-3-3-3------------1-1-1-1-

screaminforchange...
G-|---------------------------------------------------------------------
D-|---------------------------------------------------------------------------------------------
A-|-7--9-10--9-10-12-14-7--9-10--9-7--9-10--9-7--9-10--9--9-10-12-14-17-
E-|---------------------------------------------------------------------




Comments