Nofx - Scavenger Type Chords & Tabs

 

Scavenger Type Chords & Tabs

Nofx Chords & Tabs

Version: 1 Type: Tab 0 ratings
1 star 2 stars 3 stars 4 stars 5 stars
comments

Scavenger Type Tab

This song is really easy and this is the CORRECT way to play it...Have fun!!

Intro: 8x
|-2-|
|-3-|
|-2-|
|---|
|---|
|---|

each one play 4x

|-2---2---2---3---2---2---2---3-| "Gigin alone at the.....Congregated
|-3---2---3---3---3---2---3---3-|  in his hat"
|-2---3---4---0---2---3---4---0-|
|-------------------------------|
|-------------------------------|
|-------------------------------|

Last 2 chords only play twice..

|-2---0---0---3-|  
|-3---3---3---2-|
|-2---1---0---2-|
|---------2-----|
|---------------|
|---------------|
[ Tab from: http://www.guitartabs.cc/tabs/n/nofx/scavenger_type_tab.html ]
|-2---2---2---3---2---2---2---3---2|  "A crow, a scavenger type....A fifth 
|-3---2---3---3---3---2---3---3---3|   of comfort"
|-2---3---4---0---2---3---4---0---2|
|----------------------------------|
|----------------------------------|
|----------------------------------|

|-0---0---3-|
|-3---3---2-|
|-1---0---2-|
|-----2-----|
|-----------|
|-----------|

|-2---2---2---3---2---2---2---3---2-| "As the wind...his horn wail like lovers"
|-3---2---3---3---3---2---3---3---3-|  
|-2---3---4---0---2---3---4---0---2-|
|-----------------------------------|
|-----------------------------------|
|-----------------------------------|


|-0---0---3-|
|-3---3---2-|
|-1---0---2-|
|-----2-----|
|-----------|
|-----------|

|-2---2---2---3---2---2---2---3-| "The coins....no one did see him die"
|-3---2---3---3---3---2---3---3-|  
|-2---3---4---0---2---3---4---0-|
|-------------------------------|
|-------------------------------|
|-------------------------------|




Comments