Nofx - Scavenger Type Chords & Tabs

 

Scavenger Type Chords & Tabs

Nofx Chords & Tabs

Version: 1 Type: Bass Tab 0 ratings
1 star 2 stars 3 stars 4 stars 5 stars
comments

Scavenger Type Bass Tab

Song:SCAVENGER TYPE
Band:NOFX
Album:PUNK IN DRUBLIC
Tabbed by:MOKE

G:------------------- 
D:-0-0-0-0--0-0-0-0-
A:------------------- 
E:------------------- 

G:---------------------------------------- 
D:--0----------0-----------0-----------0-
A:-------------------------- --------------
E:---------------------------------------- 

G:------------------------------ 
D:------------------------------ 
A:------------------------------ 
E: --2-------2-------2--------2-

G:--------------------------- 
D:--------------------------- 
A: --2-----2------ 2------2--
E:--------------------------- 
[ Tab from: http://www.guitartabs.cc/tabs/n/nofx/scavenger_type_btab.html ]
G:---------- --------------------------------------------------
D: ----------------------------------0-------0------0------0--
A:------------------------------------------------------------ 
E: --3------3-------3--------3--------------------------------
G:-------------------------------------------------------- 
D:-------------------------------------------------------- 
A:----------------- ------------------2-----2-----2-----2-
E:---2------2-- ----2--------2----------------------------

G:-------- ------------------------------------------------
D:--- ----------------------------0-------0------0------0-
A :-------------------------------------------------------- 
E:--3-----3------3------3--------------------------------

G:----------------------------------------- 
D :-----------------------0----0----0----0-
A:--0----0-- --0----0----------------------
E:---------------------------------------- 
Comments