Nofx - S And M Airlines Chords & Tabs

 

S And M Airlines Chords & Tabs

Nofx Chords & Tabs

Version: 2 Type: Bass Tab 0 ratings
1 star 2 stars 3 stars 4 stars 5 stars
comments

S And M Airlines Bass Tab

   
song: S&m airlines
band: NoFX
album: s&m airlines
tabbed by: Carlos Pino

G-|----------------------------------------------------------------
D-|--------------------------------------------------------------------
A-|-7-7-7-7-9-9-9-9-10-10-10-10-12-12-12-12-7-5-7-5-3-2
E-|---------------------------------------------------------------------

G-|-----------------------------------------------------------------------------
D-|-----------------------------------------------------------------------------
A-|------5-7-12-10-12-10-12-14-15-14-12-14-15-15-17-15-14-10-17-15-14-12-10-|
E-|-5-5--------------------------------------------------------------------|


G-|----------------------------------------------------------------------
D-|----------------------------------------------------------------------
A-|-12-10--8--8--8----------------3-3-3-3--8--8--8--8---------
E-|------------------------5-5-5-5-----------------------------5-5-5-3-3-3-5-5-5-3-3-3-

G-|---------------------------------------------------------------------------
D-|-----------------------------------------------------------------------------
A-|-----------------3-3-3--------------------------------------------------3-3-3-
E-|-5-5-5-3-3-3---------5-5-5-3-3-3-5-5-5-3-3-3-5-5-5-3-3-3-------

G-|---------------------------------------------------------------------------------------------|
D-|----------------------------------------------------------------------------------------------|
A-|-----------------3-3-3-3-3-3------------------3-3-3-3-12-10-12-14-15-14-12-|
E-|-5-5-5-5-5-5-----------------5-5-5-5-5-5------------------------------|

G-|---------------------------------------------------------------------
D-|-----------------------------------------------------------------------
A-|------------------3-3-3----------------------------------------------------3-3-3-
E-|-5-5-5-3-3-3---------5-5-5-3-3-3-5-5-5-3-3-3-5-5-5-3-3-3-------

G-|--------------------------------------------------------------------------------
D-|---------------------------------------------------------------------------|
A-|-----------------3-3-3-3-3-3------------------3-3-3-3-12-10-12-14-15-14-12-|
E-|-5-5-5-5-5-5-----------------5-5-5-5-5-5------------------------------|

G-|-----------------------|
D-|----------------------|
A-|-12-10-12-14-15-14-12-|
E-|----------------------|
[ Tab from: http://www.guitartabs.cc/tabs/n/nofx/s_and_m_airlines_btab_ver_2.html ]
G-|----------------------------------------------------------------------------
D-|-----------------------------------------------------------------------
A-|-12-10--8--8--8----------------3-3-3-3--8--8--8--8----------
E-|------------------------5-5-5-5------------------------------5-5-5-3-3-3-5-5-5-3-3-3-

G-|--------------------------------------------------------------------------
D-|------------------------------------------------------------------------------
A-|-------------------3-3-3---------------------------------------------------3-3-3-
E-|-5-5-5-3-3-3-----------5-5-5-3-3-3-5-5-5-3-3-3-5-5-5-3-3-3-------

G-|---------------------------------------------
D-|-----------------------------------------------------
A-|------------------3-3-3-3-3-3-------------------3-3-3-3-
E-|-5-5-5-5-5-5------------------5-5-5-5-5-5---------

G-|------------------------------------------------------------------
D-|--------------------------------------------------------------------------
A-|-12-10--8--8--8----------------------------3-3-3-3--8--8--8--8-----
E-|------------------------5-5-5-5--5-5-5-5------------------------------5-5-5-5--5-5-5-5-

G-|---------------------------------------------------------------------------------
D-|----------------------------------------------------------------------------------
A-|-3-3-3-3--8--8--8--8---------------------------3-3-3-3--8--8--8--8-----
E-|-------------------------------5-5-5-5--5-5-5-5-----------------------------5-5-5-5-

G-|-----------------------------------------------------------------
D-|--------------------------------------------------------------
A-|--12-14-15-14-12-10-12-14-15-14-12-10-
E-|-------------------------------------------------------------

G-|--------------------------------------------------------------------------
D-|-----------------------------------------------------------------------------
A-|-12-14-15-14-12-10-12-14-15-14-12-10-12-14-15-14-12-10-12-14-15-14-12-10-
E-|-------------------------------------------------------------------------

G-|-------------------------------------------------------------------------
D-|--------------------------------------------------------------------------
A-|-12-14-15-14-12-10-12-14-15-14-12-10-12-14-15-14-12-10-12-14-15-14-12-10-
E-|-------------------------------------------------------------------------

G-|----------------------------------------------|
D-|----------------------------------------------|
A-|-12-14-15-14-12-10--15-14-12-10-12-14--5-3----|
E-|---------------------------------------------------------------5--|
Comments