Nofx - Reeko Chords & Tabs

 

Reeko Chords & Tabs

Nofx Chords & Tabs

Version: 3 Type: Tab 0 ratings
1 star 2 stars 3 stars 4 stars 5 stars
comments

Reeko Tab

   
I found this from another website..
[ Tab from: http://www.guitartabs.cc/tabs/n/nofx/reeko_tab_ver_3.html ]
REEKO by NOFX. Album : Punk in drublic (1994)                             1/2
This song has two sides!
A=left guitar   B=right guitar   A&B=both
:
# verse #A X3   GuitarB is quiet 'til solo    !play every note X6!
E---5-----0-----3-----1-----0-----------5-----------0-----3---|
B---6-----1-----3-----1-----1-----6-----5-----6-----1-----3---|
G---7-----0-----4-----2-----0-----7-----5-----7-----0-----4---|
D---7-----2-----5-----3-----2-----7-----7-----7-----2-----5---|
A---5-----3-----5-----3-----3-----5-----7-----5-----3-----5---|
E-------------------------------------------------------------|
:   Dm    C     G     F     C     Dm    Am    Dm    C     G
:
# solo #B h=hammer-on /=slide-up v=vibrato p=pull-off b=bend up to next note
E-------------------------------------5-8----------------------------->
B-------5-6-----------7/8-7/8-7/8-----5---8-------7/8-7/8-7/8--------->
G-------5-7---5-------8/9-8/9-8/9-7-5-------------8/9-8/9-8/9-7-5-7-5->
D---5h7--------------------------------------------------------------->
A--------------------------------------------------------------------->
E--------------------------------------------------------------------->
>soloB   k=keep on bending                                                               >
>----------------------------------------------------------------------->
>-------------------------------------------6-------------8------8------>
>--------5----------------------------------7-5--------------7b9---5-//->
>-7v--5h7-7---------------------2---3-2-5-3-----7-----6/7--------------->
>-----------------0-3-5p3-----3---3------------------------------------->
>----------------------------------------------------------------------->
>soloB
>-8----8----8------------------------------------------------------|
>-8h10-8h10-8-7-6-----6--------------------------------------------|
>-------------9-7-5---7-5-----------------------5---7b9-7k-5---5---|
>-------------------7-------------2-3-3/5-5/7-7---7----------7-----|
>-------------------------------3----------------------------------|
>------------------------------------------------------------------|
:
# verse2 #A   !play all notes X6!   *=play 3X       !pick-slide!   
E-------------------------------------------------------------------------|
B-------------------------------------------------------------------------|
G---------5----------10-----5---------------------------------------------|
D---3-----5-----5----10-----5------------------*--*-5-----3-----2-----0---|
A---3-----3-----5-----8-----3-----8-----7-----5--3--3-----3-----3-----3---|
E---1-----------3---------------------------------------------------------|
# verse2 #B   !play all notes X6!                   !pick-slide!
E-------------------------------------------------------------------------|
B-------------------------------------------------------------------------|
G---------5----------10-----5-----7---------------------------------------|
D---3-----5-----5----10-----5-----7-----7-----3-----5-----3-----2-----0---|
A---3-----3-----5-----8-----3-----5-----7-----3-----3-----3-----3-----3---|
E---1-----------3-----------------------5-----1---------------------------|
:
# verse3 #A   !play all notes X6!   *=play 3X   !GuitarB plays verse3!
E-------------------------------------------------------------------------|
B-------------------------------------------------------------------------|
G---------5----------10-----5---------------------------------------------|
D---3-----5-----5----10-----5------------------*--*-5-----3-----2-----0---|
A---3-----3-----5-----8-----3-----8-----7-----5--3------------------------|
E---1-----------3---------------------------------------------------------|
:
>>>>>>>>>>to next page...
:
:
:
:
:
:
:
:
:
REEKO                                                                     2/2
:
# outro #A    !play all notes X6!       *=play once
E-------------------------------------------------------------------|
B-------------------------------------------------------------------|
G----------------------------------------------------------------*--|
D---5-----3-----2-----0-----5-----3-----2-----0-----2-----0-----2---|
A-------------------------------------------------------------------|
E-------------------------------------------------------------------|
# outro #B    !play all notes X6!       *=play once
E-------------------------------------------------------------------|
B----------------------------------------------------------------*--|
G---------------------------------------------------------------5---|
D---5-----5-----5-----5-----3-----3-----3-----3-----2-----0-----5---|
A---5-----5-----5-----5-----3-----3-----3-----3-----3-----3-----3---|
E---3-----3-----3-----3-----1-----1-----1-----1---------------------|
Comments