Nofx - Quart In Session Chords & Tabs

 

Quart In Session Chords & Tabs

Nofx Chords & Tabs

Version: 2 Type: Bass Tab 0 ratings
1 star 2 stars 3 stars 4 stars 5 stars
comments

Quart In Session Bass Tab

Artist - NOFX
Song - Quart In Session
Album - So Long And Thanks For All The Shoes
Transcribed - Stu McNeill - www.mcneill.dircon.co.uk

Here's the bass for Quart In session, I wrote it ages ago for my web
page,
and noticed it wasnt on OLGA, so there...


Intro -                                            x2
|---------------------------------------------------|
|*-------------5-5-5-------------------------------*|
|*-------3-3-3-------------------3-3-3-------5-5-5-*|
|--3-3-3-------------5-5-5-0-0-0-------3-3-3--------|
[ Tab from: http://www.guitartabs.cc/tabs/n/nofx/quart_in_session_btab_ver_2.html ]
Chorus -
|-------------------------------------------------|----------------------|
|-------------------------------------------------|*---------------------|
|-------------3-3---------------------------------|*-0-0-0-0-0-0-0-0-3-3-|
|-3-3-2-2-1-1-----3-3-3=3-3-3-3-3-3-3-3-3-3-3-3-3-|----------------------|
                                              x2
|----------------------------------------------|-------------------------|
|---------------------------------------------*|-------------------------|
|-3-3-3-3-3-3---------------------------------*|-----------------3-3-3-3-|
|-------------3-3-3-3-3-3-3-3-3-3-3-3-3-3-3-3--|-3-3-3-3-3-3-3-3---------|

|---------|
|---------|
|-3-3-3-3-|
|---------|

Verse -                                                            x2
|-------------------------------------------------------------------|
|*-----------------------------------------------------------------*|
|*---------3-3-3-3-------------------------3-3-3-3---------5-5-5-5-*|
|--3-3-3-3---------3-3-3-3-5-5-5-5-0-0-0-0---------3-3-3-3----------|

End -
|-----------------------|
|-----------------------|
|---------3-3-3-3-------|
|-3-3-3-3---------3-3-3-|
Comments