Nofx - Pump Up The Valuum Chords & Tabs

 

Pump Up The Valuum Chords & Tabs

Nofx Chords & Tabs

Version: 2 Type: Tab 0 ratings
1 star 2 stars 3 stars 4 stars 5 stars
comments

Pump Up The Valuum Tab

tabbed by Danny Lazear

[ Tab from: http://www.guitartabs.cc/tabs/n/nofx/pump_up_the_valuum_tab_ver_2.html ]
# intro #A                                        >
E------------------------------------------------->
B------------------------------------------------->
G---9-9-9-7-9-9-712121212--------121212-9-9-9-9-9->
D---9-9-9-7-9-9-71212121210101010121212-9-9-9-9-9->
A---7-7-7-5-7-7-51010101010101010101010-7-7-7-7-7->
E-------------------------8-8-8-8----------------->
# intro #B                                        >
E------------------------------------------------->
B------------------------------------------------->
G---9--------------------------------------------->
D---9--------------------------------------------->
A---7--------------------------------------------->
E---0--------------------------------------------->
>introA                                           
>-----------------------------------------------|
>-----------------------------------------------|
>---9-9-9-7-9-9-712121212--------1212-9999999---|
>---9-9-9-7-9-9-712121212101010101212-9999999---|
>---7-7-7-5-7-7-510101010101010101010-7777777---|
>-------------------------8-8-8-8---------------|
>introB                                        
>-----------------------------------------------|
>-----------------------------------------------|
>-------------------------------------------9---|
>---2---------------------------------------9---|
>---2---------------------------------------7---|
>---0-------------------------------------------|
:
# main #A&B X2   !B pick-slide!                  
E---------------------------------------------------|
B---------------------------------------------------|
G---9-9-9-7-9-9-712121212--------121212-9-9-9-9-9---|
D---9-9-9-7-9-9-71212121210101010121212-9-9-9-9-9---|
A---7-7-7-5-7-7-51010101010101010101010-7-7-7-7-7---|
E-------------------------8-8-8-8-------------------|
:
# verse #A&B X2   *=play 6X
E---------------------------------------|
B----------------*-------------------*--|
G---9-9-9-7-9-9-5-------------------7---|
D---9-9-9-7-9-9-5-------5-5-5-4-5-5-7---|
A---7-7-7-5-7-7-3-------5-5-5-4-5-5-5---|
E-----------------------3-3-3-2-3-3-----|
:
# chorus #A   !play all notes 6X! 
E-|-------------2X----------------|-----------------------------|
B-|-------------------------------|-----------------------------|
G-|----------------14------12-----|-5---------------7-------7---|
D-|-7-------7------14------12-----|-5-------5-------7-------7---|            
A-|-7-------7------12------10-----|-3-------5-------5-------5---|           
E-|-5-------5---------------------|---------3-------------------|
# chorus #B   !play all notes 6X! 
E-|-------------2X----------------|-----------------------------|
B-|-------------------------------|-----------------------------| Then play
G-|14------14------14------12-----|-5---------------7-------7---| AintroA or
D-|14------14------14------12-----|-5-------5-------7-------7---| BintroB.   
A-|12------12------12------10-----|-3-------5-------5-------5---|          
E-|-------------------------------|---------3-------------------|
:
>>>>>>to next page...
:
:
:
:
PUMP UP THE VALUUM                                                        2/2
:
# main2 #A&B X2
E-------------------------------------------------------|
B-------------------------------------------------------|
G---9-9-9-7-9-9-7121212121212--------1211-9-9-9-9-9-9---| > Then play 
D---9-9-9-7-9-9-7121212121212101010101211-9-9-9-9-9-9---|   A&BverseA&BX2. 
A---7-7-7-5-7-7-51010101010101010101010-9-7-7-7-7-7-7---|                
E-----------------------------8-8-8-8-------------------|             
:
# verse2-part2 #A !B is quiet! !palm-muted! (after: "a mistery to me...)
E------------|
B------------|
G------------|
D------------|    > Then play AchorusA or BchorusB.
A---0----0---|
E---5----5---|
:
# outro #A
E---------------------------------------|
B---------------------------------------|
G---9-9-9-7-9-9-712121212--------12-9---|
D---9-9-9-7-9-9-7121212121010101012-9---|
A---7-7-7-5-7-7-5101010101010101010-7---|
E-------------------------8-8-8-8-------|
# outro #B                                        
E---------------------------------------|
B---------------------------------------|
G---9----------------------------12-9---|
D---9--------------------1010101012-9---|
A---7--------------------1010101010-7---|
E---0---------------------8-8-8-8-------|
:
Comments