Nofx - Please Play This Song On The Radio Chords & Tabs

 

Please Play This Song On The Radio Chords & Tabs

Nofx Chords & Tabs

Version: 3 Type: Bass Tab 0 ratings
1 star 2 stars 3 stars 4 stars 5 stars
comments

Please Play This Song On The Radio Bass Tab

NOFX
Please Play This Song On The Radio
White Trash, Two Heebs, and a Bean

Intro
G------------------------------------------|
D------------------------------------------|
A---------3-------------5-------------3----|
E--0-------------3-------------0-----------|

Main Riff
G----------------------------------------|
D----------------------------------------|
A----------55555555----------33333333----|
E--3333333----------00000000-------------|
[ Tab from: http://www.guitartabs.cc/tabs/n/nofx/please_play_this_song_on_the_radio_btab_ver_3.html ]
Fill 1
G---------------------------------------|
D---------------------------------------|
A-----------55555555---------2-3-3-3----|
E--33333333----------5-5-5-5------------|

Fill 2
G-------------------------|
D-------------------------|
A------------2222-3333----|
E--3333-5555--------------|

Fill 3
G----------------|
D----------------|
A----------------|
E--3-3------3----|

Fill 4
G-------|
D-------|
A-------|
E--3-3--|

Order: Intro 1X, Main Riff 5X, Fill 1, Main Riff 4X, Fill 2,
       Main Riff 10X, Fill 3, Main Riff 3X, Fill 1, Main Riff 2X,
       Fill 4.
Comments