Nofx - Perfect Government Chords & Tabs

 

Perfect Government Chords & Tabs

Nofx Chords & Tabs

Version: 2 Type: Chords 0 ratings
1 star 2 stars 3 stars 4 stars 5 stars
comments

Perfect Government Chords

   
NOFX - Perfect Government
By:ANdrew Mcshan(Guitarguyx182@aol.com)

E-10-12-14-15-7-5-10-7-2/3-----------------------------------------|
B--------------------------5-3-0-----------------------------------|
G------------------------------------------------------------------|
D------------------------------------------------------------------|
A------------------------------------------------------------------|
E------------------------------------------------------------------|

E------------------------------------------------------------------|
B-12-12-10--8-10-12-10-8-5-7-5-7-5-8-10-12-------------------------|
G-------------------------7----------------------------------------|
D------------------------------------------------------------------|
A------------------------------------------------------------------|
E------------------------------------------------------------------|
[ Tab from: http://www.guitartabs.cc/tabs/n/nofx/perfect_government_crd_ver_2.html ]
E------------------------------------------------------------------|
B-12-13-13h15-13-12-13-12-10-12-10h12-10-8-5--3--5-----------------|
G------------------------------------------------------------------|
D------------------------------------------------------------------|
A------------------------------------------------------------------|
E------------------------------------------------------------------|
G   Em7(2XX23X) Em
Even if it's easy to be free
   C                  G          D
What's your definition of freedom?
G    Em7                       Em
And who the fuck are you, anyway?
C
Who the fuck am I to say?
Em             D              C
What the fuck is really going on?
G          Em7        Em     C
How did the cat get so fat?
 G                      
Why does the family die?
D
Do you care why?
G                         Em7
'cause there hasn't been a sign
                     Em               C
Of anything gettin' better in the ghetto
   G
People's fed up
   Em7
But when they get up

Palm Mute
G              Em7
You point your fuckin' finger
Em              C
You racist, you bigot
G               
But that's not the problem
D
Now is it?
G                 Em7
It's all about the money
Em                C
Political power is takin
G                      D
Protecting the rich denying the poor
G                        Em7             Em
Yeah, they love to watch the war from the White House
           D
And I wonder how can they sleep at night?

G                     D
How can they sleep at night?

G          Em7      Em       C
How did the cat get so fat? (x4)
Comments