Nofx - Perfect Government Chords & Tabs

 

Perfect Government Chords & Tabs

Nofx Chords & Tabs

Version: 1 Type: Bass Tab 0 ratings
1 star 2 stars 3 stars 4 stars 5 stars
comments

Perfect Government Bass Tab

From: Tfazappa@aol.com

PERFECT GOVERNMENT by nofx

if you listen to the song you'll know the timing for each note, so i didn't
bother showing that.  instead, i showed which progression starts where.
 listen to the song and it'll all make perfect sense.  it's easy as hell to
play.


        Progression #1
A--10---9---7----------------------------
E-----------------10--8---7---5--2--3--

[ Tab from: http://www.guitartabs.cc/tabs/n/nofx/perfect_government_btab.html ]
        Progression #2
A--10--9--7------------------
E--------------8--7--10--8--


         Progression #3
A------------------3---2---5---
E--3---2----0-------------------

       Progression #4
A-------------3-----------
E---3--2--0---------------

        Progression #5
A-----------3-----
E---3--2----------


         Progression #6
A-----2--3--4--5----3-----
E--3-------------------------

      Progression  #7
A------2---3---4-----
E--3------------------


--tfazappa

Comments