Nofx - My Vagina Chords & Tabs

 

My Vagina Chords & Tabs

Nofx Chords & Tabs

Version: 2 Type: Tab 0 ratings
1 star 2 stars 3 stars 4 stars 5 stars
comments

My Vagina Tab

Daniel Rowley
NOFX
My vagina
i tabbed this becouse the other version was shit.
hey, this took me a pretty long time to work out. i would say that this sounds 
100% correct. i will finish the song and i will post it later. but for now this 
is the intro. if you want to send me any e-mails or add me to your msn. here it 
is. zulu2002@hotmail.com

|----------------------------------------------|
|--------------------------3-3-----------------|
|---------------1------1----------1--1---1-----|
|--------------2-----2-----------2--2---2------|                      
|-2-2-2-2-2-2-2--2-2-----2-----2--2---2--------|
|-0-0-0-0-0-0-0--0-0-----0-----0--0---0--------|
pm-----------   ---    -       -  -   -


|---------------------|
|---------------------|
|---------------------|
|---------------------|        
|-2-2-2-2-2-2-2-2-2---|
|-0-0-0-0-0-0-0-0-0---|
pm-----------------

[ Tab from: http://www.guitartabs.cc/tabs/n/nofx/my_vagina_tab_ver_2.html ]
play this twice palm muted, then twice open.
hold the the last note 6 times
|------------------|-----------------------|
|------------------|-----------------------|
|-9-6-7-7-6----2---|-----------------------|
|-9-6-7-7-6----2---|---6-2-2---------------|                         
|-7-4-5-5-4----0---|---6-2-2---------------|
|------------------|---4-0-0---------------|
                     then play this


then here is the verse
(part 1)
|--------------------------------------------------|
|--------------------------------------------------|
|-----------------------6-7-7-7-6------------------|
|-7-7-7-6-4-4-4-6-2-2-2-6-7-7-7-6------------------|       
|-5-5-5-6-4-4-4-6-2-2-2-4-5-5-5-4------------------|
|-5-5-5-4-2-2-2-4-0-0-0----------------------------|

(part 2)
|------------------------------------------------------------|
|------------------------------------------------------------|
|---------------6-7-7-7-9------------------------------------|
|-7-7-7-6-4-4-4-6-7-7-7-9------------------------------------|        
|-5-5-5-6-4-4-4-4-5-5-5-7------------------------------------|
|-5-5-5-4-2-2-2----------------------------------------------|
then play (part 1) once then....

(verse ending)
|--------------------------------------------------|
|--------------------------------------------------|
|-----------------------6-7-7-7-6-4----------------|
|-7-7-7-6-4-4-4-6-2-2-2-6-7-7-7-6-4----------------|       
|-5-5-5-6-4-4-4-6-2-2-2-4-5-5-5-4-2----------------|
|-5-5-5-4-2-2-2-4-0-0-0----------------------------|


thank you. have fun playing
Comments