Nofx - My Vagina Chords & Tabs

 

My Vagina Chords & Tabs

Nofx Chords & Tabs

Version: 1 Type: Tab 0 ratings
1 star 2 stars 3 stars 4 stars 5 stars
comments

My Vagina Tab

   
Artist:Nofx
Song title:My Vagina
Album:Pump Up the Vallum
Tabbed by:Joe L
Tunning: e b g d a e
e-mail:anti_government@hotmail.com

The tab of this song is very right!
------------------------------------------------------------------------------------------- 
My VaGinA- NoFx 
------------------------------------------------------------------------------------------- 


Intro1 (x2) 
e|------------------------------------------------------| 
B|------------------------------------------------------| 
G|------------------1--------------1----------1--3-3-3--| 
D|--2-2-2-2-2-2--2-----2-2-2-2--2-----2-2--2------------| 
A|--2-2-2-2-2-2--------2-2-2-2--------2-2---------------| 
E|--0-0-0-0-0-0--------0-0-0-0--------0-0---------------| 

e|--------------------------------------------------------------------| 
B|--------------------------------------------------------------------| 
G|------------------1--------------1--6/7-7-7-7\6---------------------| 
D|--2-2-2-2-2-2--2-----2-2-2-2--2-----6/7-7-7-7\6---------------------| 
A|--2-2-2-2-2-2--------2-2-2-2--------4/5-5-5-5\4--7-7-7-7\6\4-4-4-4--| 
E|--0-0-0-0-0-0--------0-0-0-0--------4/5-5-5-5\4--5-5-5-5\4\2-2-2-2--| 

Intro2 
e|-------------------------------------------| 
B|-------------------------------------------| 
G|-------------------------------------------| 
D|-----------6/7-7-7-7\6---------------------| 
A|--2-2-2-2--4/5-5-5-5\4--7-7-7-7\6\4-4-4-4--| 
E|--0-0-0-0---------------5-5-5-5\4\2-2-2-2--| 

Verse 
e|-------------------------------------------------------------------------| 
B|-------------------------------------------------------------------------| 
G|-------------------------------------------------------------------------| 
D|----------------------------6/7-7-7-7\6-------------------4-4/6/9-9-9-9--| 
A|--7-7-7\6\4-4-4/6--2-2-2-2--4/5-5-5-5\4--7-7-7\6\4-4-4/6--2-2/4/7-7-7-7--| 
E|--5-5-5\4\2-2-2/4--0-0-0-0---------------5-5-5\4\2-2-2/4-----------------| 

Chorus 
e|-----------------------------------------| 
B|-----------------------------------------| 
G|-----------------------------------------| 
D|--4--4-4-4-4-----------------------------| 
A|--2--2-2-2-2--2-2-2-2--7-7-7-7--4-4-4-4--| 
E|--------------0-0-0-0--5-5-5-5--2-2-2-2--| 
_______pm_________
[ Tab from: http://www.guitartabs.cc/tabs/n/nofx/my_vagina_tab.html ]
e|---------------------------------------------------------------| 
B|---------------------------------------------------------------| 
G|---------------------------------------------------------------| 
D|--4--4-4-4-4------------------------------4--4-4-4-4-----------| 
A|--2--2-2-2-2--2-2-2-2--7-7-7-7-7-7-7-7\4--2--2-2-2-2--2-2-2-2--| 
E|--------------0-0-0-0--5-5-5-5-5-5-5-5\2--------------0-0-0-0--| 
_______pm_______ ________pm_________ 

Bridge (x4) 
e|-------------------------------------------| 
B|-------------------------------------------| 
G|-----------6/7-7-7-7\6---------------------| 
D|-----------6/7-7-7-7\6---------------------| 
A|--2-2-2-2--4/5-5-5-5\4--7-7-7-7\6\4-4-4-4--| 
E|--0-0-0-0--4/5-5-5-5\4--5-5-5-5\4\2-2-2-2--| 

Solo 
e|---------------------------------------------------------------------| 
B|---------------------------------------------------------------------| 
G|--14-14-14\13/14-14-14\13/14-14-14\13/14-14-14\13--14-14-14\13~~-13--| 
D|---------------------------------------------------------------------| 
A|--12-12-12\11/12-12-12\11/12-12-12\11/12-12-12\11--12-12-12\11~~-11--| 
E|---------------------------------------------------------------------| 

e|-----------------------------------------------------------------------| 
B|-----------------------------------------------------------------------| 
G|--14-14-14\13--14-14-14\13~~-13/14\13/14-14-14\13-13/14-14-14-14\13\\--| 
D|-----------------------------------------------------------------------| 
A|--12-12-12\11--12-12-12\11~~-11/12\11/12-12-12\11-11/12-12-12-12\11\\--| 
E|-----------------------------------------------------------------------| 

Outro 
e|-----------------------------------------------------------------------------------| 
B|-----------------------------------------------------------------------------------| 
G|--14-14-14\13--14-14-14\13~~-13/14\13/14-14-14\13-13/14-14-14-14\13~~-13/14\13/14--| 
D|-----------------------------------------------------------------------------------| 
A|--12-12-12\11--12-12-12\11~~-11/12\11/12-12-12\11-11/12-12-12-12\11~~-11/12\11/12--| 
E|-----------------------------------------------------------------------------------| 




My Vagina lyrics:

My vagina has two sets of lips, but I don’t got monthly blood drips
My vagina hardly even used
My vagina got lot’s of extra skin, they took my outtie and made it an in
Turning donnie into Marie Osmand

Operation successful, but now I gotta pee threw a miniature hole
Gotta remember to put the seat down and when I wipe my ass
I go from front to back Cause I don’t want to get a bladder infection

I never thought I’d miss my vas deferance
I trade it in for a par of huge cans
Now I get to hang with lesbians

Operation paid up front
Now I show all my friend my new designer cunt
They think I’m kinda weird but that’s ok with me
Cause now I kick their ass playing from the ladies tee
There’s nothing finer than having a vagina
Comments