Nofx - My Job To Keep Punk Elite Chords & Tabs

 

My Job To Keep Punk Elite Chords & Tabs

Nofx Chords & Tabs

Version: 1 Type: Tab 0 ratings
1 star 2 stars 3 stars 4 stars 5 stars
comments

My Job To Keep Punk Elite Tab

   
===================================================================
                   NOFX-Its my job to keep punk rock elite
===================================================================

Intro:
E|-----------------------------------------
B|-----------------------------------------
G|-55-5-55-5-55-5-55-5-55-5-55-5-55-5-55-5-
D|-55-5-55-5-55-5-55-5-55-5-55-5-55-5-55-5-
A|-33-3-33-3-33-3-33-3-33-3-33-3-33-3-33-3-
E|-----------------------------------------

Second Intro:

E|---------------------------
B|---------------------------
G|-55-5-1515-15------1010-10-
D|-55-5-1515-15-88-8-1010-10-
A|-33-3-1313-13-88-8--8-8--8-
E|--------------66-6---------

Verse:
E|-----------------------------------------------
B|-----------------------------------------------
G|-55-5-55-5-1010-10-1010-10-----------88-8-88-8-
D|-55-5-55-5-1010-10-1010-10-66-6-66-6-88-8-88-8-
A|-33-3-33-3--8-8--8--8-8--8-66-6-66-6-66-6-66-6-
E|---------------------------44-4-44-4-----------
[ Tab from: http://www.guitartabs.cc/tabs/n/nofx/my_job_to_keep_punk_elite_tab.html ]
E|-----------------------------------------
B|-----------------------------------------
G|-55-5-55-5-----------44-4-44-4-88-8-88-8-
D|-55-5-55-5-66-6-66-6-44-4-44-4-88-8-88-8-
A|-33-3-33-3-66-6-66-6-22-2-22-2-66-6-66-6-
E|-----------44-4-44-4---------------------

Pre-Solo:
E|-----------------------------------------
B|-----------------------------------------
G|-55-5--------55-5--------55-5------------
D|-55-5--------55-5--------55-5------------
A|-33-3--------33-3--------33-3------------
E|-----------------------------------------

Solo:
E|----------------------------------------------
B|----------------------------------------------
G|----------------------------------------------
D|-66-6-55-5-33-3-------------------------------
A|----------------66-6-55-5-33-3-88-8-77-7------
E|-----------------------------------------66-6-

Solo Backing Chords:
E|----------------------------------------------
B|----------------------------------------------
G|-----------55-5-----------55-5-----------55-5-
D|-66-6-88-8-55-5-66-6-88-8-55-5-66-6-88-8-55-5-
A|-66-6-88-8-33-3-66-6-88-8-33-3-66-6-88-8-33-3-
E|-44-4-66-6------44-4-66-6------44-4-66-6------
Comments