Nofx - My Heart Is Yearning Chords & Tabs

 

My Heart Is Yearning Chords & Tabs

Nofx Chords & Tabs

Version: 1 Type: Tab 2 ratings
1 star 2 stars 3 stars 4 stars 5 stars
comments

My Heart Is Yearning Tab

MY HEART IS YEARNING by NOFX. Album : Punk in drublic (1994)
There are three different kind of parts in this song and they are all played
kinda same time, so there are three guitars. I only wrote the main parts -
playing order is easy to find.
:
# damp-part # played throughout the song                            >
E------------------------------------------------------------------->
B------------------------------------------------------------------->
G-----7---7---7---7---7---7---6---6---7---7---7---7---7---7---7---7->
D---9---9---9-------9---9---7---7---5---5---5-------5---5---4---4--->
A------------------------------------------------------------------->
E-------------------------------------------------------------------> 
>damp-part
>---------------------------------------------------------------------|
>---------------------------------------------------------------------|
>-----6---6---6---6---6---6---7---7---6---6---6---6---6---6---6---6---|
>---7---7---7-------7---7---5---5---4---4---4-------4---4---4---4-----|
>---------------------------------------------------------------------|
>---------------------------------------------------------------------|
:
# chord-part #   (Also in two ska-rhythms)
E---7-------3-------5-------2---|
B---7-------3-------5-------2---|
G---7-------4-------6-------3---|  Played throughout the song after 
D---9-------5-------7-------4---|  damp-part has been played X1.
A-------------------------------|
E-------------------------------|
:
# fast-part #  played 6X in the song                                >
E---/-----palm-muted----------\------------------------------------->
B------------------------------------------------------------------->
G---4-4-2-2---------------------2-------------------------2---4-2--->
D-----------4-4-2-2-0-0-2-2-4-4---4-0-------5-4-2-0-2-4-5----------->
A------------------------------------------------------------------->
E------------------------------------------------------------------->
>fast-part
>-----------------------------------------|
>-----------------------------------------|
>-----------------------------------------|
>---2-4-5-4-2-0-2-4-------2-4-5-4-2-0-----|
>-------------------------------------4---|
>-----------------------------------------|
:
Remember to keep the pause in every part at 01:25. Song ends to chord-part's 
first chord. Opera! I love it...
Tabbed by Jussi Heinonen 07.06.1998.

[ Tab from: http://www.guitartabs.cc/tabs/n/nofx/my_heart_is_yearning_tab.html ]
Comments