Nofx - My Heart Is Yearning Chords & Tabs

 

My Heart Is Yearning Chords & Tabs

Nofx Chords & Tabs

Version: 1 Type: Bass Tab 0 ratings
1 star 2 stars 3 stars 4 stars 5 stars
comments

My Heart Is Yearning Bass Tab

                           My Heart Is Yearning

 NoFX

By: Emanuel Hillberg
manne.hillberg@tierp.mail.telia.com
[ Tab from: http://www.guitartabs.cc/tabs/n/nofx/my_heart_is_yearning_btab.html ]
G|--22-00----------------------1-------------------020------------------------------------------|
D|---------22-00-------00-22------2-----333-2-0-2-------0-2-3-2-0----0-2---0-2-3-2-0------------|
A|----------------33-----------------3-----------------------------3------------------3-2-------|
E|----------------------------------------------------------------------------------------------|

G|--22-00-------------------1--------------------020--------------------------------------------|
D|---------22-00----00-22------2-320--333-2-0-2-------0-2-3-2-0-----0-2---0-2-3-2-0-------------|
A|---------------33---------------------------------------------3--------------------3-2--------|
E|----------------------------------------------------------------------------------------------|


Comments