Nofx - Moron Brothers Chords & Tabs

 

Moron Brothers Chords & Tabs

Nofx Chords & Tabs

Version: 2 Type: Bass Tab 0 ratings
1 star 2 stars 3 stars 4 stars 5 stars
comments

Moron Brothers Bass Tab

Song:Moron Brotherss
Band:NOFX
Album:Ribbed
tabbed by:Tim




G:--------------------------------------------------------------
D:-----------------------------------------------3-3-3-3-3-3-3-3
A:3-3-3-3-3-3-3-3-----------------5-5-5-5-5-5-5-5---------------
E:----------------1-1-1-1-1-1-1-1-------------------------------

mute=x
G:---------------------------------------------------------------
D:---------------------------------------------------------------
A:-3-3-3-3--------------------------------=----------------------
E:---------3-3-3-3-1-1-1-1-3-3-3-3-------------------------------

[ Tab from: http://www.guitartabs.cc/tabs/n/nofx/moron_brothers_btab_ver_2.html ]
G:---------------------------------------------------------------
D:---------------------------------------------------------------
A:3-3-x-3-3-x-3-3-x-3-8-7-5-5-8-7-5-5-8-7-5-5-8-7-3-3-8-7-3-3----
E:---------------------------------------------------------------


G:---------------------------------------------------------------
D:---------------------------------------------------------------
A:-8-8-8-8-3-3-5-5-8-8-8-8-7-------------------------------------
E:---------------------------------------------------------------


G:---------------------------------------------------------------
D:---------------------------------------------------------------
A:-3-3-3-3-3-3-3-------------3-3-3-3-3-3-7-5-3-3-3-3-3-3-3-3-----
E:---------------1-1-1-1-1-1-------------------------------------


G:---------------------------------------------------------------
D:---------------------------------------------------------------
A:1-1-1-1-1-1-1-1-3-3-3-3-3-3-3-3-7-5-3--------------------------
E:---------------------------------------------------------------
Comments