Nofx - Monosyllabic Girl Chords & Tabs

 

Monosyllabic Girl Chords & Tabs

Nofx Chords & Tabs

Version: 1 Type: Tab 0 ratings
1 star 2 stars 3 stars 4 stars 5 stars
comments

Monosyllabic Girl Tab

Submitted by = RiotGirl
email = Riot323232@aol.com
song = Monosyllabic Girl
group = NoFX
Comments = Monosyllabic Girl
-----------------

E---------------------------------------------------------------------
B---------------------------------------------------------------------
G------5--12--10--12-----5--12--10--12-----5--12--10--12-----5--12----
D------5--12--10--12-----5--12--10--12-----5--12--10--12-----5--12----
A------3--10--8---10-----3--10--8---10-----3--10--8---10-----3--10----
E---------------------------------------------------------------------

palm muted
E---------------------------------------------------------------------
B---------------------------------------------------------------------
G---10--12-----5--12--10--12-----5--12--10--12-----5--------5--12-----
D---10--12-----5--12--10--12-----5--12--10--12-----5--------5--12-----
A---8---10-----3--10--8---10-----3--10--8---10-----3--------3--10-----
E---------------------------------------------------------------------

palm muted
E---------------------------------------------------------------------
B---------------------------------------------------------------------
G---10--12--------5--------5--12--10--12-----5--5--5--------5--9--10--
D---10--12--------5--------5--12--10--12-----5--5--5--------5--9--10--
A---8---10--------3--------3--10--8---10-----3--3--3--------3--7--8---
E---------------------------------------------------------------------
[ Tab from: http://www.guitartabs.cc/tabs/n/nofx/monosyllabic_girl_tab.html ]
E---------------------------------------------------------------------
B---------------------------------------------------------------------
G---13--10--12--5-----------------5--12--10--12-----5--12--10--12-----
D---11--10--12--5-----------------5--12--10--12-----5--12--10--12-----
A---11--8---10--3-----------------3--10--8---10-----3--10--8---10-----
E---------------------------------------------------------------------

palm muted
E---------------------------------------------------------------------
B---------------------------------------------------------------------
G---------------------------5--------5--12--10--12--------------------
D---------------------------5--------5--12--10--12--------------------
A---------------------------3--------3--10--8---10--------------------
E---------------------------------------------------------------------
                                                                                          
palm muted
E---------------------------------------------------------------------
B---------------------------------------------------------------------
G------------------------5--------5--12--10--12-----------------------
D------------------------5--------5--12--10--12-----------------------
A------------------------3--------3--10--8---10-----------------------
E---------------------------------------------------------------------

E---------------------------------------------------------------------
B---------------------------------------------------------------------
G---------------------5--5--5--------5--9--10--13--10--12--5----------
D---------------------5--5--5--------5--9--10--11--10--12--5----------
A---------------------3--3--3--------3--7--8---11--8---10--3----------
E---------------------------------------------------------------------

=================================
Comments