Nofx - Monosyllabic Girl Chords & Tabs

 

Monosyllabic Girl Chords & Tabs

Nofx Chords & Tabs

Version: 2 Type: Bass Tab 0 ratings
1 star 2 stars 3 stars 4 stars 5 stars
comments

Monosyllabic Girl Bass Tab

-----------------------------------------------------------------------
                           Monosyllabic Girl - NOFX
-----------------------------------------------------------------------

Intro -                    x2
|---------------------------|
|*-------5-5-5-3-3-5-5-5-5-*|
|*-3-3-3-------------------*|
|---------------------------|
[ Tab from: http://www.guitartabs.cc/tabs/n/nofx/monosyllabic_girl_btab_ver_2.html ]
Verse -                                         x2
|------------------------------------------------|
|*---------2-2-2-2---------3-3-3-3----5-3-5-5-5-*|
|*-3-3-3-3---------0-0-0-0----------3-----------*|
|------------------------------------------------|
I take her down to the aquarium...

|---------------|
|----2---3---6--|
|-3-------------|
|---------------|
I take her to the seaside...

Chorus -
|---------------------------------|
|-----2-2-3-3-6-6-6-6-3-3-5-5-5---|
|-3-3---------------------------2-|
|---------------------------------|
She says sure and cool...


Comments