Nofx - Medio-core Chords & Tabs

 

Medio-core Chords & Tabs

Nofx Chords & Tabs

Version: 1 Type: Tab 0 ratings
1 star 2 stars 3 stars 4 stars 5 stars
comments

Medio-core Tab

   
email me at: timmer123@snowboard.com
hey..i got most of this form another site.but changed a couple things, just
thought that we needed this tab on UG...great song

Intro: 
e|--------------3-----------3------------------------------------------------
B|---3---3-3-2-------2-2-1-------1-1-2/3-3-----------------------------------
G|-0----0-0---------0-0---------0-0------------------------------------------
D|---------------------------------------------------------------------------
A|---------------------------------------------------------------------------
E|---------------------------------------------------------------------------


e|--------------3-----------3------------------------------------------------
B|---3---3-3-2-------2-2-1-------1-1-2/3-------------------------------------
G|-0----0-0---------0-0---------0-0------------------------------------------
D|---------------------------------------------------------------------------
A|---------------------------------------------------------------------------
E|--------------------------------------------------------------------------- 

Verse: 
Medio-core, It's not forsaken... 
e|-5-----3-----2-----5-----3-----2-----3-------------------------------------
B|-3-----3-----3-----3-----3-----3-----3-------------------------------------
G|---------------------------------------------------------------------------
D|---------------------------------------------------------------------------
A|---------------------------------------------------------------------------
E|--------------------------------------------------------------------------- 

Pre-Chorus 
Some old, some new.. .. 
e|---------------------------------------------------------------------------
B|---------------------------------------------------------------------------
G|-#-----#-----------#-----#-------------------------------------------------
D|-7-----5-----#-----5-----5-------------------------------------------------
A|-7-----5-----6-----5-----5-------------------------------------------------
E|-9-----7-----4-----3-----7------------------------------------------------- 


Chorus 
It's Medio-Core. . . Sing along, Sing along. . 
* * * * 
e|-3-----3-----2-----3-------------------------------------------------------
B|-1-----3-----3-----1-------------------------------------------------------
G|-------------------------------------Big pause here.-----------------------
D|------------------------------------Just Drums and Bass.-------------------
A|---------------------------------------------------------------------------
E|---------------------------------------------------------------------------


e|---------------------------------------------------------------------------
B|-------------------*-------------------------------------------------------
G|-*-----------*-----5-----*-------------------------------------------------
D|-10----9-----7-----5-----5-----7-------------------------------------------
A|-10----9-----7-----3-----5-----5-------------------------------------------
E|-8-----7-----5------------------------------------------------------------- 

Verse: 
The list keeps growin'. . . 
e|-5-----3-----2-----5-----3-----2-----3-------------------------------------
B|-3-----3-----3-----3-----3-----3-----3-------------------------------------
G|---------------------------------------------------------------------------
D|---------------------------------------------------------------------------
A|---------------------------------------------------------------------------
E|--------------------------------------------------------------------------- 
[ Tab from: http://www.guitartabs.cc/tabs/n/nofx/medio_core_tab.html ]
Is it, Absurd.. . . Pre, dictablity. . . 
e|---------------------------------------------------------------------------
B|------------------------------------------|-@--@--@--@--@--@-|-------------
G|-#-----#-----------#----------------------|-9--5--9--5--5--5-|-----See-----
D|-7-----5-----#-----7----------------------|-9--5--9--5--5--5-|-----Fig.1---
A|-7-----5-----5-----7----------------------|-7--7--7--7--3--7-|-------------
E|-9-----7-----3-----5----------------------....................------------

 
Muted 
(Medio-Core) It's over powered. . . 
e|---------------------------------------------------------------------------
B|-@-----@-----@-----@-----@-----@-----@-----@-------------------------------
G|-9-----5-----3-----5-----9-----5-----5-----5-------------------------------
D|-9-----5-----5-----5-----9-----5-----5-----5-------------------------------
A|-7-----7-----5-----7-----7-----7-----3-----7-------------------------------
E|--------------------------------------------------------------------------- 

I want to speak. . . 
e|---------------------------------------------------------------------------
B|---------------------------------------------------------------------------
G|-#-----#-----#-----#-----#-------------------------------------------------
D|-9-----7-----5-----7-----5-------------------------------------------------
A|-9-----7-----5-----7-----3-------------------------------------------------
E|-7-----5-----3-----5-------------------------------------------------------


Medio-Core. Sing, sing a song. . .
* * * * * * * * * * 
e|-5-----3-----2-----3-----5-----3-----2-----3-----5-----3-------------------
B|-3-----3-----3-----1-----3-----3-----3-----1-----3-----3-------------------
G|---------------------------------------------------------------------------
D|---------------------------------------------------------------------------
A|---------------------------------------------------------------------------
E|---------------------------------------------------------------------------


e|---------------------------------------------------------------------------
B|---------------------------------------------------------------------------
G|-*-----*-----*-------------------------------------------------------------
D|-9-----5-----5-------------------------------------------------------------
A|-9-----5-----5-------------------------------------------------------------
E|-7-----7-----3-------------------------------------------------------------



Fig. 1 
At this part the other guitar is leting this ring out: 
e|---------------------------------------------------------------------------
B|---------------------------------------------------------------------------
G|---------------------------------------------------------------------------
D|---------------------------------------------------------------------------
A|-3/7-----5-----3-----5-----------------------------------------------------
E|---------------------------------------------------------------------------



Medio-Core: 
"Medio-core" 

Verse 1: 
Medio-core 
It's not forsaken 
The music they're makin' 
Will leave you with a feeling of indifference 
How was the band? 
They were okay (okay) 
Not great (all right) 
But pretty good 
They played the songs I knew they would 
Some old 
Some new 
The same formula stays true 
We can conquer 
It's medio-core 

Chorus: 
Sing, 
Sing a song 
Make it simple 
So all the kids can sing along (ahh) 
Sing along (ahh) 

Verse 2: 
The list keeps growin' 
The melodies been stolen 
Remind me of songs sung in the 70's 
You might fool the kids 
But you don't fool me 
Have you ever heard of something called 
aboriginality? 
Is it absurd 
To compose music no one's ever heard 
Pre-dictability 
Like a bussom will comfort them 
My one true foe 
L.C.D. 

(Medio-core) It's upper powered 
The riffs are all deflowered 
(Medio-core) It's spreading faster 
Than British tooth decay 
(Medio-core) Are you ready to rock? 
How ya'll doing tonight? 
(Medio-core) You condescending fucks 
Make me wanna laugh and puke at the same time. 
(Medio-core) 
I want to speak 
This song sounds like fifteen you've heard before 
Medio-core 

Chorus: 
Sing 
Sing a song 
Make it simple 
So all the kids can sing along (ahh) 
Sing along (ahh) 


anything to say email me
Comments