Nofx - Lower Chords & Tabs

 

Lower Chords & Tabs

Nofx Chords & Tabs

Version: 1 Type: Tab 0 ratings
1 star 2 stars 3 stars 4 stars 5 stars
comments

Lower Tab

Tabbed by: david
Email: sk8tr@skyblue.com

Tuning: Standard (EADGBE)
[ Tab from: http://www.guitartabs.cc/tabs/n/nofx/lower_tab.html ]
# main #A   *=play 6X   #=play 4X
E---------------------------------------------------------------|
B----*-------*-------*-------*-------*-------*-------*-------#--|
G---5-------5------10------10-------5-------5------10------10---|
D---7-------7------10------10-------7-------7------10------10---|
A---0-------0-------8-------8-------0-------0-------8-------8---|
E---------------------------------------------------------------|
# main #B   *=play 6X   #=play 4X
E---------------------------------------------------------------|
B----*-------*-------*-------*-------*-------*-------*-------#--|
G--14------14------10------10------14------14------10------10---|
D--14------14------10------10------14------14------10------10---|
A---0-------0-------8-------8-------0-------0-------8-------8---|
E---------------------------------------------------------------|
:
# verse-part1 #A b=bend-up to next note # verse-part2 #A b=bend-up to nextnote
E-------------------------------------| E------------------------------------|
B-----------------17------------------| B-----------------10-----------------|
G-------------------19b2119b2119b21---| G-------------------12b1412b1412b14--|
D---7-7---7-7-7-----------------------| D---7-7---7-7-7----------------------|
A---7-7---7-7-7-----------------------| A---7-7---7-7-7----------------------|
E---5-5---5-5-5-----------------------| E---5-5---5-5-5----------------------|
# verse-part1 #B                        # verse-part2 #B
E-------------------------------------| E------------------------------------|
B-------------------------------------| B------------------------------------|
G-------------------------------------| G------------------------------------|
D---7-7---7-7-7---7-7-7---7-7-7---7---| D---7-7---7-7-7---7-7-7---7-7-7---7--|
A---7-7---7-7-7---7-7-7---7-7-7---7---| A---7-7---7-7-7---7-7-7---7-7-7---7--|
E---5-5---5-5-5---5-5-5---5-5-5---5---| E---5-5---5-5-5---5-5-5---5-5-5---5--|
:
# 1stchorus #A&B X2  *=play 6X   #=play 3X
E-------------------------------------------------------------------|
B----------------------------*---------------*----------------------|
G----*-------*-------*-----10--------*-----12--------#---#---#---#--|
D--10-------5-------7------10------10------12------10---9---7---6---|
A--10-------5-------7-------8------10------10-------8---8---8---8---|
E---8-------3-------5---------------8-------------------------------|
:
# main2 #A   *=play 6X   #=play 4X   !B plays mainB!
E---------------------------------------------------------------|
B----*-------*-------*-------*-------*-------*-------*-------#--|
G---5-------5------10------10-------5-------5------17------17---|
D---7-------7------10------10-------7-------7-------------------|
A---0-------0-------8-------8-------0-------0------15------15---|
E---------------------------------------------------------------|
:
Then play Averse-part2A or Bverse-part2B.
:                                           b=bend-up to next note
# verse2-part2 #A !B plays verse-part2B and 1stchorusA&BX2!  r=release bend
E-----------------17---------------------------------------------------------| 
B-------------------20b2220b2220b2220b22------20r\17------15b17------15r\13--| 
G----------------------------------------------------------------------------|
D---7-7---7-7-7--------------------------------------------------------------| 
A---7-7---7-7-7----------------------------------------->>>THEN-PLAY-WHAT'S--| 
E---5-5---5-5-5--------------------|OVER-CHORUS!-----------LEFT-OF-THE-CHORUS|
:
:
# 2ndchorus #A&B   *=play 6X   #=play 3X
E-------------------------------------------------------------------------|
B----*-----*-----------*-----*-----------------*-----#--#-----#--*-----*--|
G---7-----7------*----5-----7------*-----*----5-----7--5---#-3--2-----2---|
D---7-----7-----3-----5-----7-----3-----5-----5-----7--5--5--3--2-----2---|
A---5-----5-----3-----3-----5-----3-----5-----3-----5--3--2--1--0-----0---|
E---------------1-----------------1-----3---------------------------------|
:
# bridge #A   *=play 12X   #=play 6X   "=play 3X
E---------------------------------------------------------------|
B----#--"-"--*-------#--"--"-*-------#--"-"--*-------#--"-"--*--|
G--14--1210-9------10---9-7-6------14--1210-9------10---8-6-5---|
D---------------------------------------------------------------|
A--12--10-8-7-------8---7-5-4------12--10-8-7-------8---6-4-3---|
E---------------------------------------------------------------|
# bridge #B  !play all notes 12X!
E---------------------------------------------------------------|
B---------------------------------------------------------------|
G-------------------7-------------------------------6-----------|
D---3-------7-------7-------7-------3-------7-------6-------6---|
A---3-------7-------5-------7-------3-------7-------4-------6---|
E---1-------5-------5-------5-------1-------5-------4-------4---|
:
Then play A&B2ndchorusA&B (!without last note and 2nd last only once!).
"Be the best - climb the ladder. Do it better, harder, faster. I refuse to
participate!"
Comments