Nofx - Love Story Chords & Tabs

 

Love Story Chords & Tabs

Nofx Chords & Tabs

Version: 2 Type: Bass Tab 0 ratings
1 star 2 stars 3 stars 4 stars 5 stars
comments

Love Story Bass Tab

I hope i've sent it to the right mailbox...
Please guys if you use my TAB (anyhow, even as a wallpaper) drop me an E-MAIL to
gutyka@freemail.c3.hu
Thanx.

Author : NOFX
Song   : Love Story
Album  : HEAVY PETTING ZOO

by GuTyKa (gutyka@freemail.c3.hu)

BASS TAB


1.
---------------------------------------------------
---------------------------------------------------
---------------------------------------------------
-0-0-0-0--5-5-5--7-7-7-7-7-7-7-7-------------------

2.
---------------------------------------------------
---------------------------------------------------
---------------------------------------------------
-0-0-0-0--5-5-5--3-3-3-3-3-3-3-3-------------------
[ Tab from: http://www.guitartabs.cc/tabs/n/nofx/love_story_btab_ver_2.html ]
3.
---------------------------------------------------
---------------------------------------------------
---------------------------------------------------
-0-0-0-0--5-5-5-5--0-0-0--3-3-3-3--5-5-5-5-5-5-5-5-

4.
---------------------------------------------------
---------------------------------------------------
---------------------------------------------------
-0-0-0-0--5-5-5-5--0-0-0--3-3-3-3--0-0-0-0-0-0-0-0-

5.
---------------------------------------------------
---------------------------------------------------
---------------------------------------------------
-0-0-0-0-0-0-0-0-------7---------0---------7-------


1 2 3  1 2 3 1 2 4 5  1 2 3 1 2 4 5  1 2 3
alone      song           song       alone


1 2 3 1 2 4 5
 fast + song



 TAB by GuTyKa (the bass guitarist of the Smartdrive)
 gutyka@freemail.c3.hu
 If you've got other cool TABS (from GREEN DAY, NOFX, RANCID, THE BATES,
 TOY DOLLS, WIZO, OFFSPRING, SEX PISTOLS, ...) then send it to me please!

 HUN: Ha van valakinek AURORA TABja (gitar, bass, dob) akkor kuldje el
      legyszives. Kibaszottul tudnam ertekelni. Koszi!!!


Comments