Nofx - Louise Chords & Tabs

 

Louise Chords & Tabs

Nofx Chords & Tabs

Version: 2 Type: Tab 0 ratings
1 star 2 stars 3 stars 4 stars 5 stars
comments

Louise Tab

------------------------------------------------------------------------------- 
LOUISE - NOFX 
------------------------------------------------------------------------------- 
Fat Mike = pervert. 
: 
# verse # X2 *=play 3X #=play 4X palm-muted <<<=pick-slide > 
E-------------------------------------------------------------------> 
B------------*---*-------*---*---------------*---*------------------> 
G----*---*--7---9----*--7---5----*---*---*--7---9----*---*---#---#--> 
D---2---5---7---9---5---7---5---5---2---5---7---9---5---7---2---2---> 
A---2---5---5---7---5---5---3---5---2---5---5---7---5---7---2---2---> 
E---0---3-----------3-----------3---0---3-----------3---5---0---0---> 
>verse 
>-------------------------------------------------------------------| 
>--------*---*---*-------*-------*---*---*---*-------*---*----------| 
>----*--5---7---4----*--5----*--7---5---5---7----*--5---5---7-------| 
>---2---5---7---4---2---5---5---7---5---5---7---5---5---5---7-------| 
>---2---3---5---2---2---3---5---5---3---3---5---5---3---3---5---<<<-| 
>---0---------------0-------3-------------------3---------------<<<-| 
: 
# solo # !other guitar plays verseX0.5! > 
E---------------------------------------------------------------------------> 
B--/--3X-\-------------------------------------------------1212--1212-------> 
G---14b16-141214b1614--12----------------------------------1212--1212--1214-> 
D--------------------14------1412----------------------1214----14----14-----> 
A--------------------------------14131210--101210121414---------------------> 
E----------------------------------------12m--------------------------------> 
>solo 
>-----------------------------------------| 
>-----12---12---12---12-------------------| 
>14b16--14k--14k--14k--14b16--14r---------| 
>--------------------------------141214---| 
>-----------------------------------------| 
>-----------------------------------------| 
: 
# bridge # *=play 8X <<<=pick-slide (Slut, you think you've seen...) 
E-------------------------------------------------------------------| 
B--------------------*-------------------------------*-------*------| 
G----*-------*------5--------*-------*-------*------5-------7-------| 
D---5-------7-------5-------2-------5-------7-------5-------7---<<<-| 
A---5-------7-------3-------2-------5-------7-------3-------5---<<<-| 
E---3-------5---------------0-------3-------5-----------------------| 
: 
# verse3 # X2 *=play 3X #=play 4X palm-muted <<<=pick-slide > 
E-------------------------------------------------------------------> 
B------------*---*-------*---*---------------*---*------------------> 
G----*---*--7---9----*--7---5----*---*---*--7---9----*---*---#---#--> 
D---2---5---7---9---5---7---5---5---2---5---7---9---5---7---2---2---> 
A---2---5---5---7---5---5---3---5---2---5---5---7---5---7---2---2---> 
E---0---3-----------3-----------3---0---3-----------3---5---0---0---> 
>verse3 > 
>-------------------------------------------------------------------> 
>--------*---*---*-------*-------*---*---*---*-------*--------------> 
>----*--5---7---4----*--5----*--7---5---5---7----*--5----*--7-------> 
>---2---5---7---4---2---5---5---7---5---5---7---5---5---5---7-------> 
>---2---3---5---2---2---3---5---5---3---3---5---5---3---5---5-------> 
>---0---------------0-------3-------------------3-------3-----------> 
>verse3 
>-----------------------| 
>-----------------------| 
>-----------------------| 
>---8-------3-------5---| 
>---6-------3-------5---| 
>---6-------1-------3---|
[ Tab from: http://www.guitartabs.cc/tabs/n/nofx/louise_tab_ver_2.html ]
Comments