Nofx - Liza Chords & Tabs

 

Liza Chords & Tabs

Nofx Chords & Tabs

Version: 1 Type: Tab 0 ratings
1 star 2 stars 3 stars 4 stars 5 stars
comments

Liza Tab

   
LIZA by NOFX. Album : Heavy petting zoo (1996)                            1/2
Easy one.
A=Melvin   B=El Hefe   A&B=both
:
# intro #A X2  !second time without first note!  !B is quiet!  !palm-muted! 
E--------------------------------------------------------------->
B--------------------------------------------------------------->
G--------------------------------------------------------------->
D--------------------------------------------------------------->
A---2-2---0-2-2---0-2-2-5-5-2-2---0-2-2---0-2-2-4-4------------->
E---------------------------------------------------5-5---0-5-5->
>introA
>---------------------------------------|
>---------------------------------------|
>---------------------------------------|
>---------------------------------------|
>---------4-4---------------------4-4---|
>---0-5-5-----5-5---0-5-5---0-5-5-------|
:
# intro2 #A X2             
E-----------------------------------------------|
B-----------------------------------------------|
G---7-7-----------------------------------------|
D---7-7-----------------------------------------|
A---5-5-----------------------------------------|
E-----------------------------------------------|
# intro2 #B X2   *=play 14-16X palm-muted
E-----------------------------------------------|
B--------*--------------------------------------|
G---7-7-7------------*-----------*-----------*--|
D---7-7-7-----------7-----------3-----------7---|
A---5-5-5-----------7-----------3-----------7---|
E-------------------5-----------1-----------5---|
:
# intro3 #A&B X2 *=play 7X
E-------------------------------|
B----*-------*-------*----------|
G---7------10------12--------*--|
D---7------10------12-------8---|
A---5-------8------10-------8---|
E---------------------------6---|
:
# verse #B   !A plays intro!  !play all notes X4!
E--10-------7-------9-------9---|
B---7-------9------10------10---|
G-------------------------------|
D-------------------------------|
A-------------------------------|
E-------------------------------|
:
# verse-part2 #A
E--------------------------------------------------------------->    t 
B--------------------------------------------------------------->    o
G--------------------------------------------------------------->     
D--------------------------------------------------------------->    n
A---2-2---0-2-2---0-2-2-5-5-2-2---0-2-2---0-2-2-4-4------------->    e
E---------------------------------------------------5-5---0-5-5->    x
# verse-part2 #B                                                     t
E------10----10----10----10-----7-----7-----7-----7-----9-----9->
B-------7-----7-----7-----7-----9-----9-----9-----9----10----10->    p
G--------------------------------------------------------------->    a
D--------------------------------------------------------------->    g
A--------------------------------------------------------------->    e
E--------------------------------------------------------------->    .
:                                                                    :
:
:
:
LIZA                                                                      2/2
:
>verse-part2A
>---------------------------------------|
>---------------------------------------|
>---------------------------------------|
>---------------------------------------|
>---------4-4---------------------4-4---|
>---0-5-5-----2-2---0-2-2---0-2-2-------|
>verse-part2B
>-----9-----9-----6-----6-----6-----6---|
>----10----10-----7-----7-----7-----7---|
>---------------------------------------|
>---------------------------------------|    
>---------------------------------------|
>---------------------------------------|
:
Then play AintroA or BverseB, A&Bintro2BX2 (without palm-muting), AintroA or
BverseB, Averse-part2A or Bverse-part2B, AintroA or BverseB, A&Bintro2BX2
(without p-m) and Aintro2A or Bintro2BX0.75.
Whew! Got it?
Tabbed by Jussi Heinonen 10.08.1998.

[ Tab from: http://www.guitartabs.cc/tabs/n/nofx/liza_tab.html ]
Comments