Nofx - Linoleum Chords & Tabs

 

Linoleum Chords & Tabs

Nofx Chords & Tabs

Version: 4 Type: Tab 0 ratings
1 star 2 stars 3 stars 4 stars 5 stars
comments

Linoleum Tab

   
linoleum
nofx
I have seen so many wrong versions of this song, that it's not even funny.
This is 100% correct

A=left guitar  B=right guitar  A&B=both

Intro A  8x /p\=palm mute
E-----/p\---/p\-------
B---------------------
G---9-999-9-999-9-9---
D---9-999-9-999-9-9---
A---7-777-7-777-7-7---
E---------------------

Intro B  4x -comes after introA is played 4x
E---/--palm-muted-\--
B--------------------
G--------------------
D---2-2-2-2-2-2-2-2--  pick slide at the end!
A---2-2-2-2-2-2-2-2--
E---0-0-0-0-0-0-0-0--

riff A  play every note 6x
E------------------------------------------------
B------------------------------------------------
G------------------------------------------------
D--6-----6-----6-----6-----11-----9-----7-----9--
A--7-----7-----6-----6-----11-----9-----7-----9--
E--------------4-----4------9-----7-----5-----7--

riff B play every note 6x
E------------------------------------------------
B------------------------------------------------
G------------------------------------------------
D--6-----6---------------------------------------
A--------------3-----3------7------7----7-----6--
E------------------------------------------------
[ Tab from: http://www.guitartabs.cc/tabs/n/nofx/linoleum_tab_ver_4.html ]
then play introA 2x (guitarB is quiet!)

verse A&B 2x  play every note 6x
E------------------------------------------------
B------------------------------------------------
G------------------------------------------------
D--6-----6-----6-----6-----11-----9-----7-----9--
A--7-----7-----6-----6-----11-----9-----7-----9--
E--------------4-----4------9-----7-----5-----7--

Verse2 A&B play every note 12x
E------------------------------------------------
B------------------------------------------------
G------------------------------------------------
D--6--------------------11----------7------------
A--7----------6---------11----------7------------
E-------------7----------9----------5------------

then play verseA&B 1x then verse2A&B 5x (second time partly palm muted and guitar 
B is quiet) and then riff1A or riff1B.

outro     /p\=palm mute
E-----/p\---/p\--------/p\---/p\--------/p\---/p\--------
B--------------------------------------------------------
G---9-999-9-999-9-9--9-999-9-999-9-9--9-999-9-999-9-9-9--
D---9-999-9-999-9-9--9-999-9-999-9-9--9-999-9-999-9-9-9--
A---7-777-7-777-7-7--7-777-7-777-7-7--7-777-7-777-7-7-7--
E--------------------------------------------------------
Comments