Nofx - Linoleum Chords & Tabs

 

Linoleum Chords & Tabs

Nofx Chords & Tabs

Version: 2 Type: Tab 0 ratings
1 star 2 stars 3 stars 4 stars 5 stars
comments

Linoleum Tab

#----------------------------------PLEASE NOTE---------------------------------#
#This file is the author's own work and represents their interpretation of the #
#song. You may only use this file for private study, scholarship, or research. #
#------------------------------------------------------------------------------#

Song: Linoleum
Artists: Nofx
Album: Punk in Drublic


INTRO

Guitar1					

e|--------------------------------|
B|--------------------------------|
G|--9-9--9-9--9-9--9-9--9-9--9-9--|
D|--9-x--9-9--x-x--9-x--9-9--x-x--|
A|--7-7--7-7--7-7--7-7--7-7--7-7--|
E|--------------------------------|


INTRO CONTINUED

Guitar1					        Guitar2

e|--------------------------------|     	e|-------------------|
B|--------------------------------|		B|-------------------|
G|--9-9--9-9--9-9--9-9--9-9--9-9--|		G|-------------------|
D|--9-x--9-9--x-x--9-x--9-9--x-x--|		D|--2-2-2-2-2-2-2-2--|
A|--7-7--7-7--7-7--7-7--7-7--7-7--|		A|--2-2-2-2-2-2-2-2--|
E|--------------------------------|		E|--0-0-0-0-0-0-0-0--|
					               palm mute


RIFF

Guitar1					Guitar2
					
e|-----------------------------|        e|-------------------------------|
B|-----------------------------|	B|-------------------------------|
G|-----------------------------|	G|--9--9----------6---4-------4--|
D|--6--6-----------------------|	D|--9--9---6--6---6---4---7---4--|
A|---------3--3---7--7---6--6--|	A|--7--7---6--6---4---2---7---2--|
E|-----------------------------|	E|---------4--4-----------5------|
     play every note x6				play every note x6

End with  e|-------|
	  B|-------|
	  G|-------|
	  D|---2---|
	  A|---2---|
 	  E|---0---|


VERSE 1

Guitar1 & Guitar2

e|-------------------------------|
B|-------------------------------|
G|----------------6---4-------4--|
D|--2--2---6--6---6---4---7---4--|
A|--2--2---6--6---4---2---7---2--|
E|--0--0---4--4-----------5------|
       play every note x6


VERSE 2

Guitar1 & Guitar2
[ Tab from: http://www.guitartabs.cc/tabs/n/nofx/linoleum_tab_ver_2.html ]
e|-----------------------------|
B|-----------------------------|
G|----------------6--6---------|
D|--2--2---6--6---6--6---7--7--|
A|--2--2---6--6---4--4---7--7--|
E|--0--0---4--4----------5--5--|
       play every note x6


VERSE 3A

Guitar1 & Guitar2

e|-----------------------------|
B|-----------------------------|
G|---------4--4---6--6---------|
D|--2--2---4--4---6--6---7--7--|
A|--2--2---2--2---4--4---7--7--|
E|--0--0-----------------5--5--|
       play every note x6


BRIDGE

Guitar1							Guitar1 & Guitar2

e|-----------------------------------------------------*-------------------|
B|-----------------------------------------------------*-------------------|
G|-------------------4-4-4-4-4-4-4-4--6-6-6-6-6-6-6-6--*-------------------|
D|--2-2-2-2-2-2-2-2--4-x-x-x-x-x-x-x--6-x-x-x-x-x-x-x--*--7-7-7-7-7-7-7-7--|
A|--2-x-x-x-x-x-x-x--2-2-2-2-2-2-2-2--4-4-4-4-4-4-4-4--*--7-7-7-7-7-7-7-7--|
E|--0-0-0-0-0-0-0-0------------------------------------*--5-5-5-5-5-5-5-5--|

e|-----------------------------------------------------*--------|
B|-----------------------------------------------------*--------|
G|-------------------4-4-4-4-4-4-4-4--6-6-6-6-6-6-6-6--*--------|
D|--2-2-2-2-2-2-2-2--4-4-4-4-4-4-4-4--6-6-6-6-6-6-6-6--*--7--7--|
A|--2-2-2-2-2-2-2-2--2-2-2-2-2-2-2-2--4-4-4-4-4-4-4-4--*--7--7--|
E|--0-0-0-0-0-0-0-0------------------------------------*--5--5--|
							  (x6)


VERSE 3B

Guitar1					Guitar2

e|-----------------------------|	e|--------------------------------------|
B|-----------------------------|	B|--------------------------------------|
G|-----------------------------|	G|----------------6---4-------4-----/9--|
D|--6--6-----------------------|	D|--2--2---6--6---6---4---7---4-----/9--|
A|---------3--3---7--7---6--6--|	A|--2--2---6--6---4---2---7---2-----/7--|
E|-----------------------------|	E|--0--0---4--4-----------5-------------|
     play every note x6				   play every note x6


END in 	e|----------|
	B|----------|
	G|----------|
	D|--2--2-2--|
	A|--2--2-2--|
	E|--0--0-0--|


INTRO
INTRO CONTINUED
RIFF
INTRO
VERSE 1    x2
VERSE 2
VERSE 1
VERSE 3A
BRIDGE
VERSE 3A   x2
VERSE 3B
INTRO (and END)


For questions: mc_call@email.it
Comments