Nofx - Life Oriley Chords & Tabs

 

Life Oriley Chords & Tabs

Nofx Chords & Tabs

Version: 1 Type: Tab 0 ratings
1 star 2 stars 3 stars 4 stars 5 stars
comments

Life Oriley Tab

   
Band: NOFX
Sonf: Life o Riley 
Album: I Heard They Suck Live!

/\=slide up down
b=bend
h=hammer on
p=pull off
p.m.=palm mute
~~~=Tremolo(wiggle yer fingers)

First of all you play this ska thingie 7 times 

e|-4-4-4-4-4-0-22-2-0--
B|-4-4-4-4-4-0-22-2-0--
G|---------------------
D|---------------------
A|---------------------
E|---------------------

then you play this simpleton thing once(just for reference)

e|-4-4-4-4-4-4-4--
B|-4-4-4-4-4-4-4--
G|----------------
D|----------------
A|----------------
E|----------------

then you play the ska thingie 7 times and end on the first chord. Now we play this riff while the first solo is being played, this riff is in drop-D tuning and loud distortion.

                  p.m.--           p.m.--     p.m.    p.m.
e|----------------------------------------------------------
B|----------------------------------------------------------
G|----------------------------------------------------------
D|-------------------------------------------------7--------
A|-54-2--6-----7---2222---2--5--0---2222---2---5---5-------7
E|-54-2--6--7--7---2222---2--5--0---2222---2-----------7---7

now the kick ass solo which is played over the last riff. just bend the crap out of all the bends.

e|----------------------------------------------------------
B|-15---15------------------15b---15p13p12------------------
G|-14b--14b--14~~~-12h14h15----------------15p13p12---------
D|----------------------------------------------------------
A|----------------------------------------------------------
E|----------------------------------------------------------

e|----------------------------------------------------------
b|-------------------------------------------12-------------
G|-------------------------------------12h14-------12-------
D|-15p14p12----------17-14~~~\----12h14---------14----14~~~\
A|----------15p14p12------------14--------------------------
E|----------------------------------------------------------
[ Tab from: http://www.guitartabs.cc/tabs/n/nofx/life_oriley_tab.html ]
then we play the ska thingie 9 times then the simpleton thing once then the ska thing 7 more times ending on the first chord. Now another riff played while the last 
god-like solo plays. still in drop-D and loud distortion.

                   p.m.--           p.m.--    p.m.   p.m.
e|----------------------------------------------------------
B|----------------------------------------------------------
G|----------------------------------------------------------
D|------9--7---------------------------------------7--------
A|-54-2-7--5-5/12---2222---2--5--0---2222---2--5---5------7-
E|-54-2------5/12---2222---2--5--0---2222---2---------7---7-

Now the last solo which is played over the last riff I showed you. And remember: bend the poop out of all these bends too.

e|----------------------------------------------------------
B|-20--20----------------------19b--20p18p17----------------
G|-19b-19b-19\17-19~~~17h19h20---------------20p18p17-------
D|----------------------------------------------------------
A|----------------------------------------------------------
E|----------------------------------------------------------

e|---------------------------------------------------------
B|---------------------------------------------------------
G|-18p16p15------------------------------------------------
D|----------18p16p15-20~~~---------------------------------
A|---------------------------------------------------------
E|---------------------------------------------------------

e|----------------------------------------------------------
B|-doublepickthisstuff - - - - - - - - - - - - - - - -------
G|-16-16-19-16-18-16-16-16-19-16-18-16-16-16-19-16-18--19b\-
D|----------------------------------------------------------
A|----------------------------------------------------------
E|----------------------------------------------------------

finally play the ska thing 4 times thus ending the song... damn I love those solos! If you got any questions or something than e-mail me at nefulum@hotmail.com  see you next tablature!
Comments