Nofx - Leaving Jesusland Chords & Tabs

 

Leaving Jesusland Chords & Tabs

Nofx Chords & Tabs

Version: 1 Type: Tab

Leaving Jesusland Tab

----------------------------------------------------------------------------------------------------------------|--|
----------------------------------------------------------------------------------------------------------------|--|
----------------------------------------------------------------------------------------------------------------|--|
99999999--55555555--7777--4444--8888--999999999999--55555555--7777--4444-8888-----|-9999---------------------------|
99999999--55555555--7777--4444--8888--999999999999--55555555--7777--4444-8888-----|-9999---------------------------|
99999999--55555555--7777--4444--8888--999999999999--55555555--7777--4444-8888-----|-9999---------------------------|
      ...      ...            ...           ...

--------------------------------------------------------------------|
--------------------------------------------------------------------|
12-12-12-12-12-12-12----------12-12-12-12-12-12-12------------------|
12-12-12-12-12-12-121212----12-12-12-12-12-12-121212----------------|
10-10-10-10-10-10-101212----10-10-10-10-10-10-101212----------------|
---------------------------1212-------------------------------1010--|
[ Tab from: http://www.guitartabs.cc/tabs/n/nofx/leaving_jesusland_tab.html ]
-----------------------------------------------------------------------------------------------------------|
----------------12121212--1212----------------7777--77---1111111111-------121212121212---------------------|
----------------12121212--1212----------------7777--77---1111111111-------121212121212---------------------|
9---9-12---1210101010--1010----/7--5-5---55555--55---9-9-9-9-9-9-9-9 910101010101012/---------------------|
9---9-12---12------------------------/7--5-5---5-----------------------------9-9-9--------------------12/--|
9---9-12---12------------------------/7--5-5---5-----------------------------9-9-9--------------------12/--|

-----------------------------------------------------------------------------------------------------|
15--14--12--10----12-12-12-12-12-12-12--14-1515--14--12--10---12-12-12-12-12-12-12---/1515-14-12-10--|
-----------------------------------------------------------------------------------------------------|
-----------------------------------------------------------------------------------------------------|
-----------------------------------------------------------------------------------------------------|
-----------------------------------------------------------------------------------------------------|