Nofx - Leave It Alone Chords & Tabs

 

Leave It Alone Chords & Tabs

Nofx Chords & Tabs

Version: 3 Type: Tab 0 ratings
1 star 2 stars 3 stars 4 stars 5 stars
comments

Leave It Alone Tab

Artist: NOFX
Song: Leave It Alone
Album: Punk In Drublic
Written and Performed by NOFX
Tabbed by AJX

Intro
                                                
e|------------------------------------------------|
B|------------------------------------------------|
G|------------------------------------------------| x4
D|------------------------------------------------|
A|-888-77777-77-66-77777--------------------------|
E|-888-88888-55-55-55555--------------------------|

Verse 1

e|---------------------------------------------------------------|
B|---------------------------------------------------------------|
G|---------------------------------------------------------------| x2
D|-----------------222222222222222-77777-55555-33333-55555-------|
A|-333333333333333-000000000000000-55555-33333-11111-33333-------|
E|-111111111111111-----------------------------------------------|
pm|-------------------------------------------------------| 
[ Tab from: http://www.guitartabs.cc/tabs/n/nofx/leave_it_alone_tab_ver_3.html ]
For the next bit, play the same as above but without the palm muting

Chorus

Gtr 1                                          
e|--------------------------------------------------------|
B|--------------------------------------------------------|
G|---------------5555555----------------------------------| x4
D|-777777-777777-5555555-22-2-22-2------------------------|
A|-777777-777777-3333333-22-2-22-2------------------------|
E|-555555-555555---------00-0-00-0------------------------|
pm                       xx   xx 

Gtr 2                                                            
e|-----------------------------------------------------------|
B|-----------------------------------------------------------|
G|-16-16-16-16-16-15-15-15-15-15-14-14-14-14-14-14-----------| x4
D|--------------------------------------------------x11-x11--|
A|-14-14-14-14-14-13-13-13-13-13-12-12-12-12-12-12--x-9-x-9--|
E|-----------------------------------------------------------|

Repeat Verse

Repeat Chorus
Comments