Nofx - Leave It Alone Chords & Tabs

 

Leave It Alone Chords & Tabs

Nofx Chords & Tabs

Version: 1 Type: Tab 0 ratings
1 star 2 stars 3 stars 4 stars 5 stars
comments

Leave It Alone Tab


     Artist:Nofx
     Song:Leave it Alone
     Album:Punk in Drublic
     Tabbed by:Joe L
     E-mail:anti_government@hotmail.com

intro 

|-----------------------------------|
|-----------------------------------| repeat four times 
|-7-7-7-5-5-5-5-5-5-5-5-3-2-3-3-3-3-|
|-7-7-7-5-5-5-5-5-5-5-5-3-2-3-3-3-3-|
|-5-5-5-3-3-3-3-3-3-3-3-1-0-1-1-1-1-|
|-----------------------------------|



|--------|
|--------|
|--------|
|-3:-----|
|-3:-----|
|-1:-----|

verse

   pm_______________|   |_______________|   |_______|   |_______|
|-----------------------------------------------------------------
|-----------------------------------------------------------------
|-----------------------------------------7--7-7-7-7--5--5-5-5-5--
|-3--3-3-3-3-3-3-3-3--7--7-7-7-7-7-7-7-7--7--7-7-7-7--5--5-5-5-5--
|-3--3-3-3-3-3-3-3-3--7--7-7-7-7-7-7-7-7--5--5-5-5-5--3--3-3-3-3--
|-1--1-1-1-1-1-1-1-1--5--5-5-5-5-5-5-5-5--------------------------
    
  breathe ...             soft....           wouldnt..  break...

   pm_______|   |_______|
 -------------------------|
 -------------------------|
 -3--3-3-3-3--5--5-5-5-5--|
 -3--3-3-3-3--5--5-5-5-5--|
 -1--1-1-1-1--3--3-3-3-3--|
 -------------------------|
    walk...

chorus

|-------------------------------------------------------------------------
|-------------------------------------------------------------------------
|-------------------------------------------------7-7-7-7-7-7-5-5-5-5-5-5-
|-3-3-3-3-3-3-3-3-3-3-3-3-7-7-7-7-7-7-7-7-7-7-7-7-7-7-7-7-7-7-5-5-5-5-5-5-
|-3-3-3-3-3-3-3-3-3-3-3-3-7-7-7-7-7-7-7-7-7-7-7-7-5-5-5-5-5-5-3-3-3-3-3-3-
|-1-1-1-1-1-1-1-1-1-1-1-1-5-5-5-5-5-5-5-5-5-5-5-5-------------------------

 -------------------------|
 -------------------------|
 -3-3-3-3-3-3-5-5-5-5-5-5-|
 -3-3-3-3-3-3-5-5-5-5-5-5-|
 -1-1-1-1-1-1-3-3-3-3-3-3-|
 -------------------------|

Da na na na na na na na

guitar 2                        

|-------------------------------------------------------------|   
|-------------------------------------------------------------|   
|-------------------------------------------------------------|   
|-7-7-7-7-7-7-7-7-6-6-6-6-6-6-6-6-5-5-5-5-5-5-5-5-x-x-2-x-x-2-|   
|-7-7-7-7-7-7-7-7-6-6-6-6-6-6-6-6-5-5-5-5-5-5-5-5-x-x-2-x-x-2-|   
|-5-5-5-5-5-5-5-5-4-4-4-4-4-4-4-4-3-3-3-3-3-3-3-3-x-x-0-x-x-0-|   

guitar 1
[ Tab from: http://www.guitartabs.cc/tabs/n/nofx/leave_it_alone_tab.html ]
|-----------------------------------------------------------------|
|-----------------------------------------------------------------|
|-2-2-2-2-2-2-2-2-1-1-1-1-1-1-1-1-0-0-0-0-0-0-0-0-----------------|
|-------------------------------------------------2-2-2-2-2-2-2-2-|
|-----------------------------------------------------------------|
|-----------------------------------------------------------------|

verse 2

   pm_______________|   |_______________|   |_______|   |_______|
|-----------------------------------------------------------------
|-----------------------------------------------------------------
|-----------------------------------------9--9-9-9-9--7--7-7-7-7--
|-7--7-7-7-7-7-7-7-7--9--9-9-9-9-9-9-9-9--9--9-9-9-9--7--7-7-7-7--
|-7--7-7-7-7-7-7-7-7--9--9-9-9-9-9-9-9-9--7--7-7-7-7--5--5-5-5-5--
|-5--5-5-5-5-5-5-5-5--7--7-7-7-7-7-7-7-7--------------------------

  pm_______|   |_______|
 ------------------------|
 ------------------------|
 -5--5-5-5-5--7--7-7-7-7-|
 -5--5-5-5-5--7--7-7-7-7-|
 -3--3-3-3-3--5--5-5-5-5-|
 ------------------------|

chorus 2

|-------------------------------------------------------------------------
|-------------------------------------------------------------------------
|-5-5-5-5-5-5-5-5-5-5-5-5-------------------------9-9-9-9-9-9-7-7-7-7-7-7-
|-5-5-5-5-5-5-5-5-5-5-5-5-9-9-9-9-9-9-9-9-9-9-9-9-9-9-9-9-9-9-7-7-7-7-7-7-
|-3-3-3-3-3-3-3-3-3-3-3-3-9-9-9-9-9-9-9-9-9-9-9-9-7-7-7-7-7-7-5-5-5-5-5-5-
|-------------------------7-7-7-7-7-7-7-7-7-7-7-7-------------------------

 -----------------------------------------------|
 -----------------------------------------------|
 -5-5-5-5-5-5-7-7-7-7-7-7-9-9-9-9-9-9--9--9--9--|
 -5-5-5-5-5-5-7-7-7-7-7-7-9-9-9-9-9-9--9--9--9--|
 -3-3-3-3-3-3-5-5-5-5-5-5-7-7-7-7-7-7--7--7--7--|
 -----------------------------------------------|

lyrics:

breathe ever so soft, we wouldn't want to break the eggs as we walk
never alone, cautious, afraid, i hear the voice of reason on the p.a.

leave it alone, follow the grain, we couldn't stop the irresistible force
leave it the same, change with the leaves, bringing in the sheaves,
bringing in the old, leave it alone

da na na na na na na na, da na na na na na na na, da na na na na na na na,

breathe, ever so slight, we couldn't take away your god given right

leave it alone, heel and stay, roll over and shake and beg for the bone
leave it alone

da na na na na na na na, da na na na na na na na, da na na na na na na na

Comments