Nofx - Leave It Alone Chords & Tabs

 

Leave It Alone Chords & Tabs

Nofx Chords & Tabs

Version: 2 Type: Bass Tab 0 ratings
1 star 2 stars 3 stars 4 stars 5 stars
comments

Leave It Alone Bass Tab

Song:Leave It Alone
Band:NOFX
Album:Punk in Drublic
tabbed by:Tim



Intro
G:---------------------------------------------------------------
D:---------------------------------------------------------------
A:-------7--5--3--5--3-----9--5--3--5--3-------------------------
E:-5--7-----------------7----------------------------------------
[ Tab from: http://www.guitartabs.cc/tabs/n/nofx/leave_it_alone_btab_ver_2.html ]
Verse
G:---------------------------------------------------------------
D:---------------------------------------------------------------
A:------------5---3---1---3--------------------------------------
E:-1----5--------------------------------------------------------

dadadda part
G:---------------------------------------------------------------
D:-2---1---0-----------------------------------------------------
A:-------------2-------------------------------------------------
E:---------------------------------------------------------------
Comments