Nofx - Last Caress Chords & Tabs

 

Last Caress Chords & Tabs

Nofx Chords & Tabs

Version: 2 Type: Tab 0 ratings
1 star 2 stars 3 stars 4 stars 5 stars
comments

Last Caress Tab

LAST CARESS by NOFX. Album : ?
First by The Misfits, then Metallica and finally NOFX. Guess which one beats
all the others.
A=left guitar   B=right guitar   A&B=both
:
# intro #A
E-----------------------------------------|
B-----------------------------------------|
G----------10-12---------10-12-10----12---|
D--10------10-12-10------10-12-10----12---|
A--10-------8-10-10-------8-10--8----10---|
E---8-------8-10--8-------8-10--8----10---|
:
# verse #A X4  *=play 11X
E------------------|
B------------------|
G----*-----10-12---|
D--10------10-12---|
A--10-------8-10---|
E---8-------8-10---|
# verse #B X4 *=play 11X
E------------------|
B------------------|
G----*-----10-12---|
D--10------10-12---|
A--10-------8-10---|
E---8--------------|
:
# ska #A X2.5     X=mute note   !B takes pick-slide to the end!
E---X-X-1---X-X-1---X-X-3---X-X-3---X-X-8---X-X-8---X-X-5---X-X-5---|
B---X-X-1---X-X-1---X-X-3---X-X-3---X-X-8---X-X-8---X-X-5---X-X-5---|
G-------------------------------------------------------------------|
D-------------------------------------------------------------------|
A-------------------------------------------------------------------|
E-------------------------------------------------------------------|
:
# verse2 #A X2
E---------------------------------|
B---------------------------------|
G----------------10101012121212---|
D--1010101010101010101012121212---|
A--10101010101010-8-8-810101010---|
E---8-8-8-8-8-8-8-8-8-810101010---|
# verse2 #B X2
E---------------------------------|
B---------------------------------|
G----------------10101012121212---|   > Then play AverseAX2 or BverseBX2, 
D--1010101010101010101012121212---|     AskaA X1.5 (B=pick-slide) and
A--10101010101010-8-8-810101010---|     AverseAX4 or BverseBX4.
E---8-8-8-8-8-8-8-----------------|
:
# ska2 #A         X=mute note   b=B plays also  
G-|---------------------------------------------------------------|->
D-|---------------------------------------------------------------|->
A------------------------------------------------------------------->
E-----------------------------2X-!second-time-B-guitar-joins!------->
>ska2A
E---X-X-X-X-X-X-1-----------|
B---X-X-X-X-X-X-1-----------|
G--------------------b------|
D-------------------5-------|
A-------------------5---
[ Tab from: http://www.guitartabs.cc/tabs/n/nofx/last_caress_tab_ver_2.html ]
Comments