Nofx - Last Caress Chords & Tabs

 

Last Caress Chords & Tabs

Nofx Chords & Tabs

Version: 1 Type: Tab 0 ratings
1 star 2 stars 3 stars 4 stars 5 stars
comments

Last Caress Tab

"Last Caress"
NOFX



------------------------     
------------------------
------------7--------9--
---7--------7--------9--
---5--9x----5-------7--
---5--------------------


[ Tab from: http://www.guitartabs.cc/tabs/n/nofx/last_caress_tab.html ]
--xx1---xx1---xx3---xx3---xx8---xx8--xx5----xx5
----------------------------------------------
----------------------------------------------
----------------------------------------------
----------------------------------------------
----------------------------------------------

This riff happens 3 times in the song, play the muted strings four 
times for the last time u play it.
Comments