Nofx - Lager In The Dark Chords & Tabs

 

Lager In The Dark Chords & Tabs

Nofx Chords & Tabs

Version: 2 Type: Tab 0 ratings
1 star 2 stars 3 stars 4 stars 5 stars
comments

Lager In The Dark Tab

LAGER IN THE DARK by NOFX. Album: Maximum Rocknroll (1988?)
30 seconds full of power again! One, two, three, four...
:
# intro #     *=play 6X
E-----------------------------------------------------------------------|
B-----------------------------------------------------------------------|
G---9-9-9-9---7-7-7-7---4-4-4-4---5-5-5-5---7-9---7-7--12-9-9-9-9-9-9---|
D---9-9-9-9---7-7-7-7---4-4-4-4---5-5-5-5---7-9---7-7--12-9-9-9-9-9-9---|
A---7-7-7-7---5-5-5-5---2-2-2-2---3-3-3-3---5-7---5-5--10-7-7-7-7-7-7---|
E-----------------------------------------------------------------------|
:
# verse # X2
E----------------------------------------------------|
B----------------------------------------------------|
G---9-9-9-7-7-7-4-4-4-5-5-7-9-9-9-7-12-9-9-9-9-9-9---|
D---9-9-9-7-7-7-4-4-4-5-5-7-9-9-9-7-12-9-9-9-9-9-9---|
A---7-7-7-5-5-5-2-2-2-3-3-5-7-7-7-5-10-7-7-7-7-7-7---|
E----------------------------------------------------|
:
# chorus #
E---------------------------------------------->
B---------------------------------------------->
G-------------------7----12-11-9-7-5-4-5-7-9--->
D---5--4-2-----5--4-7----12-11-9-7-5-4-5-7-9--->
A---5--4-2-----5--4-5----10--9-7-5-3-2-3-5-7--->
E---3--2-0-----3--2---------------------------->
>chorus
>----------------------------------------------|
>----------------------------------------------|
>--12-11-9----12-11-7----12-11-9-7-5-4-5-7-9---|
>--12-11-9----12-11-7----12-11-9-7-5-4-5-7-9---|   > Then play verse X1.
>--10--9-7----10--9-5----10--9-7-5-3-2-3-5-7---|
>----------------------------------------------|
:
It took about five minutes to tab this - a new record! Tabbing S&M Airlines
(the song) took five days!
Tabbed by Jussi Heinonen 30.04.1998.
[ Tab from: http://www.guitartabs.cc/tabs/n/nofx/lager_in_the_dark_tab_ver_2.html ]
Comments