Nofx - Kill Rock Stars Chords & Tabs

 

Kill Rock Stars Chords & Tabs

Nofx Chords & Tabs

Version: 2 Type: Tab 0 ratings
1 star 2 stars 3 stars 4 stars 5 stars
comments

Kill Rock Stars Tab

band:NOFX
song:kill rockstars
album:so long and thanks for all the shoes
tabbed by hommie timmy_the_turttle@msn.com

intro:

g--------------------
d--14-12-10-12-------
a--12-10--8-10-10----
E---------------8----

then
b---------------------------|-------------------------
g-------101010--------5555--|------77777-55555-171717-
d-77777-101010-555555-5555--|33333-77777-55555-171717-
a-77777--8-8-8-555555-3333--|33333-55555-33333-151515-
e-55555--------333333-------|11111--------------------
[ Tab from: http://www.guitartabs.cc/tabs/n/nofx/kill_rock_stars_tab_ver_2.html ]
then
b-----------------------------------------------------
g-----------------------------------------------------
d-55-77-99-1010--------------------------------------
a-33-55-77--8-8--121212-151515------------------------
e----------------101010-131313------------------------

ending
g-------------------------------------------------
d--121212121212-1515151515-----------------------
a--121212121212-1515151515----------------------
e--101010101010-1313131313-----------------------

thatīs it just figure out the order 
NOFX RULES!!!!!!!!!!!!!!!!!!!!!!!
CAMARA
Comments