Nofx - Kill Rock Stars Chords & Tabs

 

Kill Rock Stars Chords & Tabs

Nofx Chords & Tabs

Version: 1 Type: Tab 0 ratings
1 star 2 stars 3 stars 4 stars 5 stars
comments

Kill Rock Stars Tab

   
KILL ROCK STARS by NOFX. Album : So long and thanks for all the shoes (1997)
Great song - especially B guitar.
A=Melvin   B=El Hefe   A&B=both
:
# intro #A   %=pause
E----------------------------------------------------------------------------|
B----------------------------------------------------------------------------|
G---141414------101010------------------------141414------101010-------------|
D---141414101010101010-7-7-710101010----------141414101010101010-7-7-710101010
A---121212101010-8-8-8-9-9-910101010-%%%%%%%%-121212101010-8-8-8-9-9-910101010
E----------------------------8-8-8-8-----------------------------------8-8-8-8
# intro #B   %=pause
E----------------------------------------------------------------------------|
B----------------------------------------------------------------------------|
G----------------------------------------------------------------------------|
D----------------------------------------------------------------------------|
A-%%%%%%%%%%%%%%%%%%%%%%%%%%%%%%%%%%%%-3-3-3-%%%%%%%%%%%%%%%%%%%%%%%%%%%%%%%-|
E----------------------------------------------------------------------------|
:
# verse #A&B   *=play 6X   #=play 4X with pause
E------------------------------------------------------------|
B----------------------------*---------------*-------#----#--|
G----*-------*-------*------5--------*------7------12---12---|
D---7-------3-------5-------5-------3-------7------10---10---|
A---7-------3-------5-------3-------3-------5------10--------|
E---5-------1-------3---------------1------------------------|
:
# verse-part2 #B !A plays verseA&B! *=play 6X #=play 4X with pause &=play 3X
E------------------------------------------------------------|
B------------------------------------------------------------|
G--------------------------------------------*-------#----#--|
D----*-------*-------*-------&---&---*------3-------2---32---|
A---3-------3-------5-------7---5---3------------------------|
E------------------------------------------------------------|
:
# chorus #A   *=play 6X   #=play 3X
E---------------------------------------------------|
B----*-------*--------------------------------------|
G---7-------7--------*-------*-------#---#---#---#--|
D---7-------7-------3-------3------10---9---7---5---|
A---5-------5-------3-------3------10---9---7---5---|
E-------------------1-------1-------8---7---5---3---|
# chorus #B   *=play 6X   #=play 3X
E---------------------------------------------------|
B----*-------*--------------------------------------|
G---7-------7--------*-------*----------------------|
D---7-------7-------7-------7--------#---#---#---#--|
A---5-------5-----------------------3---5---7---8---|
E---------------------------------------------------|
:
# end-chorus #A&B  *=play 6X
E-------------------------------|
B----*-------*------------------|
G---7-------7--------*-------*--| > Then play A&BverseA&B, AverseA&B or
D---7-------7-------3-------3---|   Bverse-part2B and AchorusAX2 or  
A---5-------5-------3-------3---|   BchorusBX2.
E-------------------1-------1---|
:
# end-chorus2 #A&B  *=play 6X
E-------------------1---|
B----*-------*------1---|
G---7-------7-------2---|
D---7-------7-------3---|
A---5-------5-------3---|
E-------------------1---|
Ok!
Tabbed by Jussi Heinonen 25.09.1998.

[ Tab from: http://www.guitartabs.cc/tabs/n/nofx/kill_rock_stars_tab.html ]
Comments