Nofx - Kill All The White Man Chords & Tabs

 

Kill All The White Man Chords & Tabs

Nofx Chords & Tabs

Version: 1 Type: Tab 0 ratings
1 star 2 stars 3 stars 4 stars 5 stars
comments

Kill All The White Man Tab

Artist:Nofx
Title:Kill All the White Man
Album: The Longest Line
Tabbed by: Joe L
Tuneing: standard

intro/chorus/verse - what ever you want to call it

|-1--1--1--1--3--3--5--5--|
|-1--1--1--1--3--3--5--5--|
|-------------------------|
|-------------------------|
|-------------------------|
|-------------------------|

2nd part is with distortion

|-----------------------------------------------------------------|
|-----------------------------------------------------------------|
|-5-5-5-5-5-5-5-5-----------------7-7-7-7-7-7-7-7-----------------| play 
|-5-5-5-5-5-5-5-5-5-5-5-5-5-5-5-5-7-7-7-7-7-7-7-7-3-3-3-3-3-3-3-3-| twice
|-3-3-3-3-3-3-3-3-5-5-5-5-5-5-5-5-5-5-5-5-5-5-5-5-3-3-3-3-3-3-3-3-|
|-----------------3-3-3-3-3-3-3-3-----------------1-1-1-1-1-1-1-1-|

then keep playing this until the end of the song
[ Tab from: http://www.guitartabs.cc/tabs/n/nofx/kill_all_the_white_man_tab.html ]
|-------------------------------------------------------------------------|
|-------------------------------------------------------------------------|
|-5-5-5-5-5-5-5-5-----------------7-7-7-7-7-7-7-7-10-10-10-10-10-10-10-10-|
|-5-5-5-5-5-5-5-5-5-5-5-5-5-5-5-5-7-7-7-7-7-7-7-7-10-10-10-10-10-10-10-10-|
|-3-3-3-3-3-3-3-3-5-5-5-5-5-5-5-5-5-5-5-5-5-5-5-5--8--8--8--8--8--8--8--8-|
|-----------------3-3-3-3-3-3-3-3-----------------------------------------|

lyrics:

the white man call himself civilized, cause he know how to take over
the white man come to pillage my village, now he tell me i have to bend over
oh yeah, kill all the white man
no i don't like the white man up in me
he rape my people as he rape my country
everything i love and cherish, he try to take away
we will be rid of him, soon come the day
oh yeah, kill all the white man
 
Comments