Nofx - Kids Of The K Hole Chords & Tabs

 

Kids Of The K Hole Chords & Tabs

Nofx Chords & Tabs

Version: 2 Type: Bass Tab 0 ratings
1 star 2 stars 3 stars 4 stars 5 stars
comments

Kids Of The K Hole Bass Tab

------------------------------------------------------------------
		    KIDS OF THE K-HOLE - NOFX
------------------------------------------------------------------

By: Dave Wilson (nougeypooge@hotmail.com for requests)
Member of the Bass Tab Archive Tabbing Army

>means strum 8 times >>means strum 16 times

Intro (x5)
G|---------------------------------------------------------------|
D|-7-7-7--7----7-7-7--7----7-7-7--7----7-7-7--7------------------|
A|---------------------------------------------------------------|
E|---------------------------------------------------------------|

Bass run
G|-------6-7--9-7--6-6/4--6--------------------------------------|
D|--7-7----------------------------------------------------------|
A|---------------------------------------------------------------|
E|---------------------------------------------------------------|
Intro (x3)
Bass run
[ Tab from: http://www.guitartabs.cc/tabs/n/nofx/kids_of_the_k_hole_btab_ver_2.html ]
Verse Part 1
G|---------------------------------------------------------------|
D|---------------------------------------------------------------|
A|-0>>---/8>>---3>-------8>>---5>>---0>>---------------------/8>>|
E|-------------------3>--------------------3>>---2>>---1>>-------|

Verse Part 2
G|---------------------------------------------------------------|
D|--------3-5-8>>----7-5-3>>---------------3-5-8>>--7-5-3>>------|
A|-3>>-------------------------3>>----3>>------------------------|
E|---------------------------------------------------------------|

Verse Part 3
G|---------------------------------------------------------------|
D|---------------------------------------------------------------|
A|-0>>---/8>>---3>--2>--0>>---/8>>---3>--2>---/8>>---5>--0>--8>>-|
E|---------------------------------------------------------------|
Verse Part 2

Verse Part 4
G|---------------------------------------------------------------|
D|---------------------------------------------------------------|
A|-0>>---/8>>---3>-2>---/8>>---5>>---0>>-------------------------|
E|-----------------------------------------3>>---2>>---1---------|

Comments