Nofx - Jeff Wears Birkenstocks Chords & Tabs

 

Jeff Wears Birkenstocks Chords & Tabs

Nofx Chords & Tabs

Version: 1 Type: Bass Tab 0 ratings
1 star 2 stars 3 stars 4 stars 5 stars
comments

Jeff Wears Birkenstocks Bass Tab

Jeff Wears Birkenstocks / NOFX


G:------------------------------------------
D:----------------------------------------- 
A:--5-5-5-5-----------------------3-3-3-3-
E:-----------5-5-5-5-3-3-3-3-3-3---------- 
[ Tab from: http://www.guitartabs.cc/tabs/n/nofx/jeff_wears_birkenstocks_btab.html ]
G:---------------------------------------------------
D:------------------------7-5-7-5-----------7-5-7-5- 
A:--5-5-5--------------------------------------------
E:---------5-5-5-5-5-5-5----------7-5-7-5---------- 

Comments