Nofx - Its My Job To Keep Punk Rock Elite Chords & Tabs

 

Its My Job To Keep Punk Rock Elite Chords & Tabs

Nofx Chords & Tabs

Version: 2 Type: Bass Tab 0 ratings
1 star 2 stars 3 stars 4 stars 5 stars
comments

Its My Job To Keep Punk Rock Elite Bass Tab

-----------------------------------------------------------------------
                 It's My Job To Keep Punk Rock Elite - NOFX
-----------------------------------------------------------------------

Intro -                    x2
|---------------------------|
|*-------------------3-3-3-*|
|*-3-3-3-1-1-1-1-1-1-------*|
|---------------------------|
[ Tab from: http://www.guitartabs.cc/tabs/n/nofx/its_my_job_to_keep_punk_rock_elite_btab_ver_2.html ]
Verse -                                            x4
|---------------------------------------------------|
|*-------------------------------------1-1-1-1-1-1-*|
|*-3-3-3-3-3-3-------------2-2-2-2-2-2-------------*|
|--------------4-4-4-4-4-4--------------------------|

End bit -
       xlots
|----------|
|*--------*|
|*-3-3--3-*|
|----------|
Never understand it, try to buy and brand it...

|-----------------------------------------------------|
|-----------------------------------------------------|
|--------------------------1-1-1-1-1-1-1-1-1-1-1-1--3-|
|-4-4-4-4-4-4-4-4-4-4-4-4-----------------------------|
... elite.  This music aint...


Comments