Nofx - Iron Man Chords & Tabs

 

Iron Man Chords & Tabs

Nofx Chords & Tabs

Version: 2 Type: Tab 0 ratings
1 star 2 stars 3 stars 4 stars 5 stars
comments

Iron Man Tab

IRON MAN by NOFX. Album: Maximum Rocknroll (1988?)                        1/2
Slow-motion song, which was originally recorded by Black Sabbath. I think
NOFX's version is much better.
:
# intro #   (=bend up and release
E---------------|
B---------------|
G---------------|
D---(-------(---|
A---7-------7---|
E---------------|
:
# verse # X7
E---------------------------------------------------|
B---------------------------------------------------|
G-------7---7-9-9--9--12-11-12-11-12-11-7--7-9--9---|
D---9---7---7-9-9--9--12-11-12-11-12-11-7--7-9--9---|
A---9---5---5-7-7--7--10--9-10--9-10--9-5--5-7--7---|
E---7-----------------------------------------------|
:
# bridge # X2?
E--------------------------------------|
B--------------------------------------|
G---------7----------------------------|
D---9--9--7---9--8--7-7-7--5--6--7-8---|  >Then play verse X4
A---9--9--5---9--8--7-7-7--5--6--7-8---|
E---7--7------7--6--5-5-5--3--4--5-6---|
:
# chorus #  (Nobody wants him...)   # bridge2 # X2
E---------------|                   E--------------------------|
B---------------|                   B--------------------------|
G---9-------7---|                   G--------------------------|
D---9-------7---|                   D---9--9-----------7-8-9---|
A---7-------5---|                   A---9--9---7-7-8-9---------|
E---------------|                   E---7--7-------------------|
:
Then play chorus, bridge2, verse X4, chorus, bridge2, chorus and bridge2.
:
# bridge3 # X2
E-----------------------|
B-----------------------|
G---6-4-----------------|   > Then play bridge2 X4, verse X4 and bridge.
D-------6-4-------------|
A-----------7-4-----4---|
E---------------4-7-----|
:
# bridge4 # !palm-muted!
E---Other-guitar------|
B---plays-this-to-the-|
G---end-of-the-song---|
D---------------------|     >>> Then play intro.
A---------------------|
E---0-0-0-0-0-0-0-0---|
:
# outro #
E---------------------------------------------|
B---------------------------------------------|
G---------------------------------------------|
D---------------------------------------------|
A---7-5-7-----5-----7-5-7-----9-10-9-10-9-5---|
E---------------------------------------------|
:
>>>>>>>>>>>>>>to next page...
:
:
:
:
:
IRON MAN                                                                  2/2
:
# solo #     v=vibrato       t=tremelo picking
E---------------------------------------------------------------------------->
B---------------8v-8v-8v-8-7-----7/t/15---17-17-19-15-15-17-14-14-15--13--12->
G------7-----7---------------9-7--------------------------------------------->
D------7--9------------------------------------------------------------------>
A---7------------------------------------------------------------------------>
E---------------------------------------------------------------------------->
>solo
>-------------------------------------------------------------|
>---17-15-13-12-11--------------------------------------------|
>------------------14-12--------------------------------------|
>------------------------14-14-12-12-14-12-10--9--7-7---------|
>------------------------------------------------------10-9---|
>-------------------------------------------------------------|
:
Then play outro X3? and then it's done.
Tabbed by Jussi Heinonen 24.04.1998.              Thanks to Juha Kellokoski.
[ Tab from: http://www.guitartabs.cc/tabs/n/nofx/iron_man_tab_ver_2.html ]
Comments