Nofx - I Want You To Want Me Chords & Tabs

 

I Want You To Want Me Chords & Tabs

Nofx Chords & Tabs

Version: 1 Type: Tab 0 ratings
1 star 2 stars 3 stars 4 stars 5 stars
comments

I Want You To Want Me Tab

Esta cancion es locaza xD


Intro
|----------0-------------|
|-------------7--4--0----|
|-4--4--2--------------7-|
|----------------------7-|
|-------------5--4--2--5-|
|-5--4--2--0-------------|


Riff 1  
|------------------------------------|
|------------------------------------|
|-------------------7-7-7-7----------|
|-7-7-7-7--4-4-4-2--7-7-7-7--7-7-7-7-|
|-7-7-7-7--4-4-4-2--5-5-5-4--7-7-7-7-|
|-5-5-5-4--2-2-2-0-----------5-5-5-4-|

|---------------------------------|
|---------------------------------|
|----4-----7-----4-4xxxxxx--------|
|-4--4--4--7--4--4-4xxxxxx-4xxxx4-|
|-4--2--4--5--4--2-2xxxxxx-4xxxx4-|
|-2-----2-----2------------2xxxx2-|


Riff 2
|----------------------------------|
|----------------------------------|
|------xx9xx9xx9xx9-------77777777-|
|-7--7-xx9xx9xx9xx9--4--4-77777777-|
|-7--7-xx7xx7xx7xx7--4--4-55555555-|
|-5--5---------------2--2----------|

|----------------------------------|
|----------------------------------|
|------xx2xx2xx2xx2-------77777777-|
|-7--7-xx2xx2xx2xx2--4--4-77777777-|
|-7--7-xx0xx0xx0xx0--4--4-55555555-|
|-5--5---------------2--2----------|

[ Tab from: http://www.guitartabs.cc/tabs/n/nofx/i_want_you_to_want_me_tab.html ]
Riff 1  
|------------------------------------|
|------------------------------------|
|-------------------7-7-7-7----------|
|-7-7-7-7--4-4-4-2--7-7-7-7--7-7-7-7-|
|-7-7-7-7--4-4-4-2--5-5-5-4--7-7-7-7-|
|-5-5-5-4--2-2-2-0-----------5-5-5-4-|

|---------------------------------|
|---------------------------------|
|----4-----7-----4-4xxxxxx--------|
|-4--4--4--7--4--4-4xxxxxx-4xxxx4-|
|-4--2--4--5--4--2-2xxxxxx-4xxxx4-|
|-2-----2-----2------------2xxxx2-|


Riff 2
|------------------------------------------|
|------------------------------------------|
|----------xx9xx9xx9xx9-----------77777777-|
|-77777777-xx9xx9xx9xx9--44444444-77777777-|
|-77777777-xx7xx7xx7xx7--44444444-55555555-|
|-55555555---------------22222222----------|

|------------------------------------------|
|------------------------------------------|
|----------xx2xx2xx2xx2-----------77777777-|
|-77555555-xx2xx2xx2xx2--44444444-77777777-|
|-77555555-xx0xx0xx0xx0--44444444-55555555-|
|-55555555---------------22222222----------|


Riff 3
|-------------------------------------|
|-------------------------------------|
|-------------------------------------|
|-7777777777-777777-4444444444-222222-|
|-7777777777-777777-4444444444-222222-|
|-5555555555-444444-2222222222-000000-|
                                    
|--------------------------------|
|--------------------------------|
|-7777777777-777777-4444444444-7-|
|-7777777777-777777-4444444444-7-|
|-5555555555-444444-2222222222-5-|
|--------------------------------|


Bueno eso es todo
jeje buena cancion

By Marco (Marven)

                       Punk Rock Rulez!!
Comments