Nofx - I Am The One Chords & Tabs

 

I Am The One Chords & Tabs

Nofx Chords & Tabs

Version: 1 Type: Tab 0 ratings
1 star 2 stars 3 stars 4 stars 5 stars
comments

I Am The One Tab

NOFX :I Am The One-
Album:Rancid/NOFX Split
By::sexpistols 78

Intro 4x Guitar 1 
e-------------
b-------------
g-------7-----
d-7--5--7--7--
a-7--5--5--7--
E-5--3-----5--

Guitar 2 comes in after 1 plays intro Twice.
e-5--3-----5--
b-5--3--7--5--
g-6--4--7--6-- 2x
d-7--5--7--7--
a-7--5--5--7--
E-5--3-----5--

HEY HEY HEY Riff
e---------------
b----888--------
g----777-7-777--
d-77-555-7-777--   4x
a-77-----5-555--
E-55------------

Verse
          PM  ____
e--------|--------------
b--------|--------------
g--------|---------7777-  ~=Let ring during bass.
d--------|--7-7777-7777-     
a--------|--7-7777-5555-       
E---5~---|--5-5555------           
[ Tab from: http://www.guitartabs.cc/tabs/n/nofx/i_am_the_one_tab.html ]
Chorus 2x guitar 1
e-------------
b-------------
g-------7-----
d-7--5--7--7--
a-7--5--5--7--
E-5--3-----5--

Chorus Guitar 2 come in after 1 plays riff once 
e-5--3-----5--
b-5--3--7--5--
g-6--4--7--6-- 2x
d-7--5--7--7--
a-7--5--5--7--
E-5--3-----5--

Verse/its just bass at first then guitar comes in
PM  ____
e--------------
b--------------
g--------7777--
d-7-7777-7777--  4x
a-7-7777-5555--
E-5-5555-------

Then Chorus,HEY HEY HEY Riff then 
e----------------------------------------------
b----------------------------------------------
g----------77777777-1010101010101010-99999999--
d-77777777-77777777-1010101010101010-99999999-- 2x
a-77777777-55555555-8-8-8-8-8-8-8-8--77777777--
E-55555555-------------------------------------

Then Chorus,HEY HEY HEY Riff. 
End on A5.
Comments