Nofx - Hobophobic Scared Of Bums Chords & Tabs

 

Hobophobic Scared Of Bums Chords & Tabs

Nofx Chords & Tabs

Version: 1 Type: Tab 0 ratings
1 star 2 stars 3 stars 4 stars 5 stars
comments

Hobophobic Scared Of Bums Tab

Song: Hobophobic (scared of bums)
Artist: NOFX
Album: heavy petting zoo
Tabbed by: FelixThaPunkCat000

> means you have to find the rythm for yourself

Bass intro
----------

verse1
------
D------11>---------9>---|------9>--------
A-9>---9->---11>---7>---|-9>---7>---9>---
E-7>---------9->--------|-7>--------7>---

D------11>---------9>---|------13>---11>---9>---
A-9>---9->---11>---7>---|-9>---11>----9>---7>---
E-7>---------9->--------|-7>--------------------

D------11>---------9>---|------9>--------
A-9>---9->---11>---7>---|-9>---7>---9>---
E-7>---------9->--------|-7>--------7>---

Chorus
------
D------9>---
A-6>---7>---
E-4>--------

D------11>---------9>---|------9>--------
A-9>---9->---11>---7>---|-9>---7>---9>---
E-7>---------9->--------|-7>--------7>---
[ Tab from: http://www.guitartabs.cc/tabs/n/nofx/hobophobic_scared_of_bums_tab.html ]
verse2
------
D------11>---------9>---|------9>--------
A-9>---9->---11>---7>---|-9>---7>---9>---
E-7>---------9->--------|-7>--------7>---

D------11>---------9>---|------13>---11>---9>---
A-9>---9->---11>---7>---|-9>---11>----9>---7>---
E-7>---------9->--------|-7>--------------------

Chorus
------
D-----------
A-6>---2>---
E-4>---0>---

D------11>---------9>---|------9>--------
A-9>---9->---11>---7>---|-9>---7>---9>---
E-7>---------9->--------|-7>--------7>---

Lyrics
------
Hobo
I'm hobophobic 
So what AHAH 
Scared of bums 
Not just because they stink bad 
Not just because they're crackers 
From drinking too much Lysol 
Let them be 
Just don't get fuckin' near me
Scared of bums AHAH
with microscopic bugs 
Endocrine systematic  
Why don't they get a job? 
Let them be 
Just don't get fuckin' near me
Scared of bums 


Comments