Nofx - Hobophobic Chords & Tabs

 

Hobophobic Chords & Tabs

Nofx Chords & Tabs

Version: 1 Type: Bass Tab 0 ratings
1 star 2 stars 3 stars 4 stars 5 stars
comments

Hobophobic Bass Tab

Song:Hobophobic
Band:NoFX
CD:Heavy Petting Zoo
Tabbed by:Paul (Submitted by:Dave)
Very easy song with a good quick beat
This is going to be part A:
		G-----------------------
		D-------4-4-4-------2-2-2
		A-2-2-2-------4-4-4------
		E------------------------
This will be part B:
            G-------------------------
		D-------2-2-2-------------
		A-2-2-2-------2-2-2--2-2-2
		E-------------------------
This will be part C:
		G-------------------------
		D--------------------2-2-2
		A-2-2-2-------------------
		E-------4-4-4--2-2-2------
This will be part D
G-------------------------------------------------------------
D-------------------------------2-2-2---2-2-2---2-2-2---2-2-2-
A-------------------------------------------------------------
E-4-4-4---4-4-4---4-4-4---4-4-4------------------------------

The song starts with Ax3 then Bx1, drums , Ax1 then Cx1 then Ax1 then Bx1,
you then play Dx1, then Ax1 then Bx1, drums, Ax1 then Cx1 then Ax1 then Bx1,
you then play Dx1, then Ax1 then Bx1 and you just played Hobophobic by NoFX


[ Tab from: http://www.guitartabs.cc/tabs/n/nofx/hobophobic_btab.html ]
Comments