Nofx - Herojuana Chords & Tabs

 

Herojuana Chords & Tabs

Nofx Chords & Tabs

Version: 1 Type: Tab 0 ratings
1 star 2 stars 3 stars 4 stars 5 stars
comments

Herojuana Tab

   
HEROJUANA - Nofx


TABBED BY:JONNY APPLESEED
"RYTHYM/TIMING NOT TABBED"

INTRO:PART-1:
GUITAR 1:           GUITAR 2:
e|--------------|   e|---------------|
B|--------------|   B|---------------|
G|--------------|   G|-5--5--5--5--5-|
D|--2-----2--3--|   D|-x--x--x--x--x-|
A|--3--2--0--2--|   A|-3--3--3--3--3-|
E|-----0--------|   E|---------------|

PART 2:BOTHS GUITARS:
e|--------------------------------------------------------------------------|
B|--------------------------------------------------------------------------|
G|-------------------------------------------------[---PM----]-[----PM---]--|
D|-[---PM----]-[---PM----]-[---PM----]-[---PM----]-5-5-5-5-5-5-12-12-12-12--|
A|-3-3-3-3-3-3-5-5-5-5-5-5-7-7-7-7-7-7-3-3-3-3-3-3-3-3-3-3-3-3-10-10-10-10--|
E|-1-1-1-1-1-1-3-3-3-3-3-3-5-5-5-5-5-5-1-1-1-1-1-1--------------------------|

CHORUS 1:BOTH GUITARS:
e|------------------------------------------------------------------|
B|------------------------------------------------------------------|
G|-5-5-5-5--------------------10-10-10-10--12-12-12-12--10-10-10-10-|
D|-5-5-5-5--8-8-8-8--7-7-7-7--10-10-10-10--12-12-12-12--10-10-10-10-|
A|-3-3-3-3--8-8-8-8--7-7-7-7---8--8--8--8--10-10-10-10---8--8--8--8-|
E|----------6-6-6-6--5-5-5-5----------------------------------------|

GUITAR 1:           GUITAR 2:
e|--------------|   e|---------------|
B|--------------|   B|---------------|
G|--------------|   G|-5--5--5--5--5-|
D|--2-----2--3--|   D|-x--x--x--x--x-|
A|--3--2--0--2--|   A|---------------|
E|-----0--------|   E|---------------|

VERSE 1:
GUITAR 1:(ARE WE MEN, ARE WE CHILDREN..)
e|----------------------------------------------------------------------->
B|----------------------------------------------------------------------->
G|-----------------------------------------------10-10-10-10-10-10-10-10->
D|-3-3-3-3-3-3-3-5-5-5-5-5-5-5-5-7-7-7-7-7-7-7-7-10-10-10-10-10-10-10-10->
A|-3-3-3-3-3-3-3-5-5-5-5-5-5-5-5-7-7-7-7-7-7-7-7--8--8--8--8--8--8--8--8->
E|-1-1-1-1-1-1-1-3-3-3-3-3-3-3-3-5-5-5-5-5-5-5-5------------------------->

e|----------------------------------------------|
B|----------------------------------------------|
G|-5-5-5-5-5-5-5-5-5-12-12-12-12-12-12-12-12-12-|
D|-5-5-5-5-5-5-5-5-5-12-12-12-12-12-12-12-12-12-|
A|-3-3-3-3-3-3-3-3-3-10-10-10-10-10-10-10-10-10-|
E|----------------------------------------------|
[ Tab from: http://www.guitartabs.cc/tabs/n/nofx/herojuana_tab.html ]
GUITAR 2:
e|------------------------------------------------------------------------>
B|------------------------------------------------------------------------>
G|-16-16-16-16--14-14--12-12--14--16--14-12-14-12-14-12-14-12-14-12-14-12->
D|--X--X--X--X---X--X---X--X---X---X-------------------------------------->
A|-14-14-14-14--12-12--10-10--12--14-------------------------------------->
E|------------------------------------------------------------------------>

e|-----------------------------------------------|
B|-----------------------------------------------|
G|-12-12-12-10-9-9-9/14--12-12-12-10-7-7-7/16-17-|
D|--X--X--X--X-X-X-X--X---X--X--X--X-X-X-X--X--X-|
A|-10-10-10--8-7-7-7/12--10-10-10--8-5-5-5/14-15-|
E|-----------------------------------------------|

CHORUS 2:
e|------------------------------------------------------------------|
B|------------------------------------------------------------------|
G|-5-5-5-5--------------------10-10-10-10--12-12-12-12--10-10-10-10-|
D|-5-5-5-5--8-8-8-8--7-7-7-7--10-10-10-10--12-12-12-12--10-10-10-10-|
A|-3-3-3-3--8-8-8-8--7-7-7-7---8--8--8--8--10-10-10-10---8--8--8--8-|
E|----------6-6-6-6--5-5-5-5----------------------------------------|

GUITAR 1:
e|-----------------------------------------------------------------|
B|-----------------------------------------------------------------|
G|-7-7-7-7---------5-5-5-5-4-4-4-4-10-10-10-10-5-5-5-5-12-12-12-12-|
D|-7-7-7-7-3-3-3-3-5-5-5-5-4-4-4-4-10-10-10-10-5-5-5-5-12-12-12-12-|
A|-5-5-5-5-3-3-3-3-3-3-3-3-2-2-2-2--8--8--8--8-3-3-3-3-10-10-10-10-|
E|---------1-1-1-1-------------------------------------------------|

GUITAR 2:
e|----------------------------------------------------------------|
B|----------------------------------------------------------------|
G|-7-7-7-7---------5-5--10-10-9-9-7-7-5-5-5-5-5-5-5-5-12-12-12-12-|
D|-7-7-7-7-3-3-3-3-5-5---X--X-X-X-X-X-X-X-X-X-5-5-5-5-12-12-12-12-|
A|-5-5-5-5-3-3-3-3-3-3---8--8-7-7-5-5-3-3-3-3-3-3-3-3-10-10-10-10-|
E|---------1-1-1-1------------------------------------------------|

BOTH GUITARS:
e|--------------------------------->
B|--------------------------------->
G|-7-7-7-7-7-7-7-7----------------->
D|-7-7-7-7-7-7-7-7-3-3-3-3-3-3-3-3->
A|-5-5-5-5-5-5-5-5-3-3-3-3-3-3-3-3->
E|-----------------1-1-1-1-1-1-1-1->

e|------------------------------------------------------------------|
B|------------------------------------------------------------------|
G|-5-5-5-5--------------------10-10-10-10--12-12-12-12--10-10-10-10-|
D|-5-5-5-5--8-8-8-8--7-7-7-7--10-10-10-10--12-12-12-12--10-10-10-10-|
A|-3-3-3-3--8-8-8-8--7-7-7-7---8--8--8--8--10-10-10-10---8--8--8--8-|
E|----------6-6-6-6--5-5-5-5----------------------------------------|

OUTRO:THERE IS A FEW CHANGES HERE BUT I CAN'T BE BOTHERED TABBING THEM.
e|-------------|----------------|
B|-------------|-FINISH-ON-THIS-|
G|-5--7--9--10-|-------12-------|
D|-X--X--X---X-|--------X-------|
A|-3--5--7---8-|-------10-------|
E|-------------|----------------|

QUESTIONS OR CORRECTIONS PUNKJ@HOTMAIL.COM
Comments