Nofx - Here Comes The Neighborhood Chords & Tabs

 

Here Comes The Neighborhood Chords & Tabs

Nofx Chords & Tabs

Version: 1 Type: Tab 0 ratings
1 star 2 stars 3 stars 4 stars 5 stars
comments

Here Comes The Neighborhood Tab

   
HERE COMES THE NEIGHBORHOOD by NOFX. Album : Liberal animation (1988)     1/3
I didn't tab the solo because it is so quietly on the background that I
can't get a thing of it. Nice song anyway!
A=Dave   B=Melvin   A&B=both
:
# intro #A X8
E---3--3-3-3-3--5--5-5-5-5---|
B---5--5-5-5-5--7--7-7-7-7---|
G---5--5-5-5-5--7--7-7-7-7---|
D---5--5-5-5-5--7--7-7-7-7---|
A---3--3-3-3-3--5--5-5-5-5---|
E----------------------------|
# intro #B X8
E------8-----8----10----10---|
B------5-----5-----7-----7---|
G----------------------------|
D----------------------------|
A----------------------------|
E----------------------------|
:
# intro2 #A   >>>>>to next page...
:
:
HERE COMES THE NEIGHBORHOOD                                               2/3
:
>chorusA
>----------------------------------------------------------------------------|
>----------------------------------------------------------------------------|
>---------------------------------7-5-4--------------------------------------|
>-----2-3-5-3-2---4-5-7-5-4-------------7-5-4---------2-3-5-3-2---4-5-7-5-4--|
>---3-----------5-----------7-----------------7-----3-----------5------------|
>----------------------------------------------------------------------------|
>chorusB
>----------------------------------------------------------------------------|
>----*-----------*-----------------------------------*-----------*-----------|
>---5-----------7-----------------7-5-4-------------5-----------7------------|
>---5-----------7-----------2-----------7-5-4-------5-----------7------------|
>---3-----------5-----------2-----------------7-----3-----------5------------|
>---------------------------0------------------------------------------------|
:
# bridge #A   !play all notes X6!  (I've had enough...)
E-----------------------------------|
B-----------------------------------|
G---9---7-----------9---7-----------|
D---9---7---5---5---9---7---5---5---|
A---7---5---5---5---7---5---5---5---|
E-----------3---3-----------3---3---|
# bridge #B   !play all notes 
E-----------------------------------|
B-----------------------------------|
G-----------------------------------|
D---2---4---5---5---2---4---5---5---|
A---2-------5---5---2-------5---5---|
E---0-------3---3---0-------3---3---|
:
# bridge2 #A&B X4
E-----------------/p-mute\------------|
B-------------------------------------|
G-------------------------------------|
D---2-2---5-5-5-2-77777777------025---|
A---2-2---5-5-5-2-55555555----02------|
E---0-0---3-3-3-0----------003--------|
:
# bridge3 #A&B
E----------------------------------------------------|
B----------------------------------------------------|
G---9-9----------7-7----------5-5--------------------|
D---9-9------025-7-7------025-5-5------025-5-5-5-5---|
A---7-7----02----5-5----02----3-3----02----5-5-5-5---|
E-------003----------003----------003------3-3-3-3---|
:
# bridge4 #A
E-------------------------------|
B-------------------------------|
G-------------------------------|
D---2---------------------------|
A---2---------------------------|
E---0---------------------------|
# bridge4 #B
E-------------------------------|
B---------------------------5---|
G-------------------------4-----|
D---2---------4-5---0-2---------|   > Then play AchorusA or BchorusB.
A---2---2-3---------------------|
E---0---------------------------|
:                                     
>>>>>>>>>to next page...
:
:
:
:
HERE COMES THE NEIGHBORHOOD                                               3/3
:
# end-chorus2 #A   
[ Tab from: http://www.guitartabs.cc/tabs/n/nofx/here_comes_the_neighborhood_tab.html ]
Comments