Nofx - Happy Break Up Song Chords & Tabs

 

Happy Break Up Song Chords & Tabs

Nofx Chords & Tabs

Version: 1 Type: Tab 0 ratings
1 star 2 stars 3 stars 4 stars 5 stars
comments

Happy Break Up Song Tab

   
x means to mute string

intro:
E---------------------------------------------------------------
B---------------------------------------------------------------
G-9---9-7-6-7-----9---9-7-6-7-----9---9-7-6-7-----9---9-7-6-----
D---7---------------7---------------7---------------7-------7---
A---------------------------------------------------------------
E---------------------------------------------------------------
[ Tab from: http://www.guitartabs.cc/tabs/n/nofx/happy_break_up_song_tab.html ]
verse:
E-----------------------------------------------------------------------
B-----------------------------------------------------------------------
G------------------9999999999999999-7777777777777777-9999999999999999---
D-7777777777777777-9999999999999999-7777777777777777-9999999999999999---
A-7777777777777777-7777777777777777-5555555555555555-7777777777777777---
E-5555555555555555------------------------------------------------------

chorus:
E------------------------------------
B------------------------------------
G-------------77-xx-77-xx-77-xx-77-xx
D-44-xx-22-xx-77-xx-77-xx-77-xx-77-xx
A-44-xx-22-xx-55-xx-55-xx-55-xx-55-xx
E-22-xx-00-xx------------------------ 

ORDER:
intro (x2)
verse (x4)
chorus (x4)          *after you play the chorus the fourth time in 
intro (x2)
verse (x2)
chorus (x4)
intro (x2)
pickslide
verse (x4)

end on
D-7
A-7
E-5

*after you play the chorus the fourth time instead of ending like this:
E------------------------
B------------------------
G-77-xx-77-xx-77-xx-77-xx
D-77-xx-77-xx-77-xx-77-xx
A-55-xx-55-xx-55-xx-55-xx
E------------------------

end like this:
E------
B------
G-7-9--
D-7-9--
A-5-7--
E------
Comments