Nofx - Green Corn Chords & Tabs

 

Green Corn Chords & Tabs

Nofx Chords & Tabs

Version: 4 Type: Tab 0 ratings
1 star 2 stars 3 stars 4 stars 5 stars
comments

Green Corn Tab

-------------------------------------------------------------------------------
			     Green Corn (solo)- Nofx
-----------------------------------------------------------------------------
Tabbed by:Eric W.
Email:eric_wampler_138@hotmail.com


Tuning:EADGBE
[ Tab from: http://www.guitartabs.cc/tabs/n/nofx/green_corn_tab_ver_4.html ]
e|---------------------------------7-9-10-12-10-8--------------------------------------|
B|--------------------------6-8-10------------------10---------------------------------|
G|--------------------5-7-9------------------------------------------------------------|
D|--------------5-7-9------------------------------------------------------------------|
A|-------5-7-8-------------------------------------------------------------------------|
E|-5-7-8-------------------------------------------------------------------------------|

e|---------------------------------------------------|
B|--12-12h14p--12-12h16p-12-12h14p-12-12h16p-----x2--|
G|---------------------------------------------------|
D|---------------------------------------------------|
A|---------------------------------------------------|
E|---------------------------------------------------|

e|---------------------------------|
B|--20b-20-17------17-20-20b-------|
G|------------19b------------------|
D|---------------------------19~~--|
A|---------------------------------|
E|---------------------------------|
Comments